  0
SECTION
  2
HEADER
  9
$ACADVER
  1
AC1015
  9
$ACADMAINTVER
 70
     6
  9
$DWGCODEPAGE
  3
ANSI_1252
  9
$INSBASE
 10
0.0
 20
0.0
 30
0.0
  9
$EXTMIN
 10
-88.0000002788
 20
-32.8650138992
 30
0.0
  9
$EXTMAX
 10
88.0000003938
 20
29.1970037384
 30
0.0
  9
$LIMMIN
 10
0.0
 20
0.0
  9
$LIMMAX
 10
420.0
 20
297.0
  9
$ORTHOMODE
 70
     0
  9
$REGENMODE
 70
     1
  9
$FILLMODE
 70
     1
  9
$QTEXTMODE
 70
     0
  9
$MIRRTEXT
 70
     1
  9
$LTSCALE
 40
1.0
  9
$ATTMODE
 70
     1
  9
$TEXTSIZE
 40
3.5
  9
$TRACEWID
 40
1.0
  9
$TEXTSTYLE
  7
Standard
  9
$CLAYER
  8
0
  9
$CELTYPE
  6
ByLayer
  9
$CECOLOR
 62
   256
  9
$CELTSCALE
 40
1.0
  9
$DISPSILH
 70
     0
  9
$DIMSCALE
 40
1.0
  9
$DIMASZ
 40
3.302
  9
$DIMEXO
 40
1.0
  9
$DIMDLI
 40
3.75
  9
$DIMRND
 40
0.0
  9
$DIMDLE
 40
0.0
  9
$DIMEXE
 40
1.0
  9
$DIMTP
 40
0.0
  9
$DIMTM
 40
0.0
  9
$DIMTXT
 40
3.5
  9
$DIMCEN
 40
2.5
  9
$DIMTSZ
 40
0.0
  9
$DIMTOL
 70
     0
  9
$DIMLIM
 70
     0
  9
$DIMTIH
 70
     1
  9
$DIMTOH
 70
     1
  9
$DIMSE1
 70
     0
  9
$DIMSE2
 70
     0
  9
$DIMTAD
 70
     1
  9
$DIMZIN
 70
     0
  9
$DIMBLK
  1

  9
$DIMASO
 70
     1
  9
$DIMSHO
 70
     1
  9
$DIMPOST
  1

  9
$DIMAPOST
  1

  9
$DIMALT
 70
     0
  9
$DIMALTD
 70
     3
  9
$DIMALTF
 40
0.0393700787
  9
$DIMLFAC
 40
1.0
  9
$DIMTOFL
 70
     1
  9
$DIMTVP
 40
0.0
  9
$DIMTIX
 70
     0
  9
$DIMSOXD
 70
     0
  9
$DIMSAH
 70
     0
  9
$DIMBLK1
  1

  9
$DIMBLK2
  1

  9
$DIMSTYLE
  2
ISO-25
  9
$DIMCLRD
 70
     0
  9
$DIMCLRE
 70
     0
  9
$DIMCLRT
 70
     0
  9
$DIMTFAC
 40
1.0
  9
$DIMGAP
 40
1.524
  9
$DIMJUST
 70
     0
  9
$DIMSD1
 70
     0
  9
$DIMSD2
 70
     0
  9
$DIMTOLJ
 70
     0
  9
$DIMTZIN
 70
     0
  9
$DIMALTZ
 70
     0
  9
$DIMALTTZ
 70
     0
  9
$DIMUPT
 70
     0
  9
$DIMDEC
 70
     3
  9
$DIMTDEC
 70
     3
  9
$DIMALTU
 70
     2
  9
$DIMALTTD
 70
     3
  9
$DIMTXSTY
  7
Standard
  9
$DIMAUNIT
 70
     0
  9
$DIMADEC
 70
     1
  9
$DIMALTRND
 40
0.0
  9
$DIMAZIN
 70
     0
  9
$DIMDSEP
 70
    44
  9
$DIMATFIT
 70
     3
  9
$DIMFRAC
 70
     0
  9
$DIMLDRBLK
  1

  9
$DIMLUNIT
 70
     2
  9
$DIMLWD
 70
    -2
  9
$DIMLWE
 70
    -2
  9
$DIMTMOVE
 70
     0
  9
$LUNITS
 70
     2
  9
$LUPREC
 70
     2
  9
$SKETCHINC
 40
1.0
  9
$FILLETRAD
 40
10.0
  9
$AUNITS
 70
     0
  9
$AUPREC
 70
     1
  9
$MENU
  1
.
  9
$ELEVATION
 40
0.0
  9
$PELEVATION
 40
0.0
  9
$THICKNESS
 40
0.0
  9
$LIMCHECK
 70
     0
  9
$CHAMFERA
 40
0.0
  9
$CHAMFERB
 40
0.0
  9
$CHAMFERC
 40
0.0
  9
$CHAMFERD
 40
0.0
  9
$SKPOLY
 70
     0
  9
$TDCREATE
 40
2459431.329911447
  9
$TDUCREATE
 40
2459431.246578114
  9
$TDUPDATE
 40
2459431.329939097
  9
$TDUUPDATE
 40
2459431.246605764
  9
$TDINDWG
 40
0.0000000116
  9
$TDUSRTIMER
 40
0.0000000116
  9
$USRTIMER
 70
     1
  9
$ANGBASE
 50
0.0
  9
$ANGDIR
 70
     0
  9
$PDMODE
 70
     0
  9
$PDSIZE
 40
-1.0
  9
$PLINEWID
 40
0.0
  9
$SPLFRAME
 70
     0
  9
$SPLINETYPE
 70
     6
  9
$SPLINESEGS
 70
     8
  9
$HANDSEED
  5
356
  9
$SURFTAB1
 70
     6
  9
$SURFTAB2
 70
     6
  9
$SURFTYPE
 70
     6
  9
$SURFU
 70
     6
  9
$SURFV
 70
     6
  9
$UCSBASE
  2

  9
$UCSNAME
  2

  9
$UCSORG
 10
0.0
 20
0.0
 30
0.0
  9
$UCSXDIR
 10
1.0
 20
0.0
 30
0.0
  9
$UCSYDIR
 10
0.0
 20
1.0
 30
0.0
  9
$UCSORTHOREF
  2

  9
$UCSORTHOVIEW
 70
     0
  9
$UCSORGTOP
 10
0.0
 20
0.0
 30
0.0
  9
$UCSORGBOTTOM
 10
0.0
 20
0.0
 30
0.0
  9
$UCSORGLEFT
 10
0.0
 20
0.0
 30
0.0
  9
$UCSORGRIGHT
 10
0.0
 20
0.0
 30
0.0
  9
$UCSORGFRONT
 10
0.0
 20
0.0
 30
0.0
  9
$UCSORGBACK
 10
0.0
 20
0.0
 30
0.0
  9
$PUCSBASE
  2

  9
$PUCSNAME
  2

  9
$PUCSORG
 10
0.0
 20
0.0
 30
0.0
  9
$PUCSXDIR
 10
1.0
 20
0.0
 30
0.0
  9
$PUCSYDIR
 10
0.0
 20
1.0
 30
0.0
  9
$PUCSORTHOREF
  2

  9
$PUCSORTHOVIEW
 70
     0
  9
$PUCSORGTOP
 10
0.0
 20
0.0
 30
0.0
  9
$PUCSORGBOTTOM
 10
0.0
 20
0.0
 30
0.0
  9
$PUCSORGLEFT
 10
0.0
 20
0.0
 30
0.0
  9
$PUCSORGRIGHT
 10
0.0
 20
0.0
 30
0.0
  9
$PUCSORGFRONT
 10
0.0
 20
0.0
 30
0.0
  9
$PUCSORGBACK
 10
0.0
 20
0.0
 30
0.0
  9
$USERI1
 70
     0
  9
$USERI2
 70
     0
  9
$USERI3
 70
     0
  9
$USERI4
 70
     0
  9
$USERI5
 70
     0
  9
$USERR1
 40
0.0
  9
$USERR2
 40
0.0
  9
$USERR3
 40
0.0
  9
$USERR4
 40
0.0
  9
$USERR5
 40
0.0
  9
$WORLDVIEW
 70
     1
  9
$SHADEDGE
 70
     3
  9
$SHADEDIF
 70
    70
  9
$TILEMODE
 70
     1
  9
$MAXACTVP
 70
    64
  9
$PINSBASE
 10
0.0
 20
0.0
 30
0.0
  9
$PLIMCHECK
 70
     0
  9
$PEXTMIN
 10
-34.0
 20
-32.8650520051
 30
0.0
  9
$PEXTMAX
 10
17.5926828697
 20
29.1970037254
 30
0.0
  9
$PLIMMIN
 10
-40.3653390493
 20
-35.2520541486
  9
$PLIMMAX
 10
54.1599458326
 20
31.5840058689
  9
$UNITMODE
 70
     0
  9
$VISRETAIN
 70
     1
  9
$PLINEGEN
 70
     0
  9
$PSLTSCALE
 70
     1
  9
$TREEDEPTH
 70
  3020
  9
$CMLSTYLE
  2
Standard
  9
$CMLJUST
 70
     0
  9
$CMLSCALE
 40
20.0
  9
$PROXYGRAPHICS
 70
     1
  9
$MEASUREMENT
 70
     1
  9
$CELWEIGHT
370
    -1
  9
$ENDCAPS
280
     0
  9
$JOINSTYLE
280
     0
  9
$LWDISPLAY
290
     1
  9
$INSUNITS
 70
     4
  9
$HYPERLINKBASE
  1

  9
$STYLESHEET
  1

  9
$XEDIT
290
     1
  9
$CEPSNTYPE
380
     0
  9
$PSTYLEMODE
290
     1
  9
$FINGERPRINTGUID
  2
{01116343-D217-40E8-B7D1-A71E81A7FF3A}
  9
$VERSIONGUID
  2
{FAEB1C32-E019-11D5-929B-00C0DF256EC4}
  9
$EXTNAMES
290
     1
  9
$PSVPSCALE
 40
0.0
  9
$OLESTARTUP
290
     0
  0
ENDSEC
  0
SECTION
  2
CLASSES
  0
CLASS
  1
ACDBDICTIONARYWDFLT
  2
AcDbDictionaryWithDefault
  3
ObjectDBX Classes
 90
        0
280
     0
281
     0
  0
CLASS
  1
VISUALSTYLE
  2
AcDbVisualStyle
  3
ObjectDBX Classes
 90
     4095
280
     0
281
     0
  0
CLASS
  1
MATERIAL
  2
AcDbMaterial
  3
ObjectDBX Classes
 90
     1153
280
     0
281
     0
  0
CLASS
  1
SCALE
  2
AcDbScale
  3
ObjectDBX Classes
 90
     1153
280
     0
281
     0
  0
CLASS
  1
TABLESTYLE
  2
AcDbTableStyle
  3
ObjectDBX Classes
 90
     4095
280
     0
281
     0
  0
CLASS
  1
MLEADERSTYLE
  2
AcDbMLeaderStyle
  3
ACDB_MLEADERSTYLE_CLASS
 90
     4095
280
     0
281
     0
  0
CLASS
  1
SUN
  2
AcDbSun
  3
SCENEOE
 90
     1153
280
     0
281
     0
  0
CLASS
  1
ACDBPLACEHOLDER
  2
AcDbPlaceHolder
  3
ObjectDBX Classes
 90
        0
280
     0
281
     0
  0
CLASS
  1
LAYOUT
  2
AcDbLayout
  3
ObjectDBX Classes
 90
        0
280
     0
281
     0
  0
ENDSEC
  0
SECTION
  2
TABLES
  0
TABLE
  2
VPORT
  5
8
330
0
100
AcDbSymbolTable
 70
     1
  0
VPORT
  5
29
330
8
100
AcDbSymbolTableRecord
100
AcDbViewportTableRecord
  2
*Active
 70
     0
 10
0.0
 20
0.0
 11
1.0
 21
1.0
 12
0.0000000575
 22
-1.8340050804
 13
0.0
 23
0.0
 14
10.0
 24
10.0
 15
10.0
 25
10.0
 16
0.0
 26
0.0
 36
1.0
 17
0.0
 27
0.0
 37
0.0
 40
63.3032579904
 41
2.8358730085
 42
50.0
 43
0.0
 44
0.0
 50
0.0
 51
0.0
 71
     0
 72
   100
 73
     1
 74
     3
 75
     0
 76
     0
 77
     0
 78
     0
281
     0
 65
     1
110
0.0
120
0.0
130
0.0
111
1.0
121
0.0
131
0.0
112
0.0
122
1.0
132
0.0
 79
     0
146
0.0
  0
ENDTAB
  0
TABLE
  2
LTYPE
  5
5
330
0
100
AcDbSymbolTable
 70
     6
  0
LTYPE
  5
14
330
5
100
AcDbSymbolTableRecord
100
AcDbLinetypeTableRecord
  2
ByBlock
 70
     0
  3

 72
    65
 73
     0
 40
0.0
  0
LTYPE
  5
15
330
5
100
AcDbSymbolTableRecord
100
AcDbLinetypeTableRecord
  2
ByLayer
 70
     0
  3

 72
    65
 73
     0
 40
0.0
  0
LTYPE
  5
16
330
5
100
AcDbSymbolTableRecord
100
AcDbLinetypeTableRecord
  2
Continuous
 70
     0
  3
Solid line
 72
    65
 73
     0
 40
0.0
  0
LTYPE
  5
6E
330
5
100
AcDbSymbolTableRecord
100
AcDbLinetypeTableRecord
  2
HIDDEN
 70
     0
  3
Hidden __ __ __ __ __ __ __ __ __ __ __ __ __ __
 72
    65
 73
     2
 40
1.905
 49
1.27
 74
     0
 49
-0.635
 74
     0
  0
LTYPE
  5
6F
330
5
100
AcDbSymbolTableRecord
100
AcDbLinetypeTableRecord
  2
PHANTOM
 70
     0
  3
Phantom ______  __  __  ______  __  __  ______
 72
    65
 73
     6
 40
12.7
 49
6.35
 74
     0
 49
-1.27
 74
     0
 49
1.27
 74
     0
 49
-1.27
 74
     0
 49
1.27
 74
     0
 49
-1.27
 74
     0
  0
LTYPE
  5
70
330
5
100
AcDbSymbolTableRecord
100
AcDbLinetypeTableRecord
  2
CENTER
 70
     0
  3
Center ____ _ ____ _ ____ _ ____ _ ____ _ ____
 72
    65
 73
     4
 40
10.16
 49
6.35
 74
     0
 49
-1.27
 74
     0
 49
1.27
 74
     0
 49
-1.27
 74
     0
  0
LTYPE
  5
71
330
5
100
AcDbSymbolTableRecord
100
AcDbLinetypeTableRecord
  2
CENTERX2
 70
     0
  3
Center (2x) ________  __  ________  __  _____
 72
    65
 73
     4
 40
20.32
 49
12.7
 74
     0
 49
-2.54
 74
     0
 49
2.54
 74
     0
 49
-2.54
 74
     0
  0
LTYPE
  5
72
330
5
100
AcDbSymbolTableRecord
100
AcDbLinetypeTableRecord
  2
DOT2
 70
     0
  3
Dot (.5x) ........................................
 72
    65
 73
     2
 40
0.635
 49
0.0
 74
     0
 49
-0.635
 74
     0
  0
ENDTAB
  0
TABLE
  2
LAYER
  5
2
330
0
100
AcDbSymbolTable
 70
     1
  0
LAYER
  5
10
330
2
100
AcDbSymbolTableRecord
100
AcDbLayerTableRecord
  2
0
 70
     0
 62
     7
  6
Continuous
370
    -3
390
F
  0
ENDTAB
  0
TABLE
  2
STYLE
  5
3
330
0
100
AcDbSymbolTable
 70
     1
  0
STYLE
  5
11
330
3
100
AcDbSymbolTableRecord
100
AcDbTextStyleTableRecord
  2
Standard
 70
     0
 40
0.0
 41
1.0
 50
0.0
 71
     0
 42
3.5
  3
txt
  4

  0
ENDTAB
  0
TABLE
  2
VIEW
  5
6
330
0
100
AcDbSymbolTable
 70
     0
  0
ENDTAB
  0
TABLE
  2
UCS
  5
7
330
0
100
AcDbSymbolTable
 70
     0
  0
ENDTAB
  0
TABLE
  2
APPID
  5
9
330
0
100
AcDbSymbolTable
 70
     1
  0
APPID
  5
12
330
9
100
AcDbSymbolTableRecord
100
AcDbRegAppTableRecord
  2
ACAD
 70
     0
  0
ENDTAB
  0
TABLE
  2
DIMSTYLE
  5
A
330
0
100
AcDbSymbolTable
 70
     1
100
AcDbDimStyleTable
  0
DIMSTYLE
105
27
330
A
100
AcDbSymbolTableRecord
100
AcDbDimStyleTableRecord
  2
ISO-25
 70
     0
 41
2.5
 42
0.625
 43
3.75
 44
1.25
 73
     0
 74
     0
 77
     1
 78
     8
140
2.5
141
2.5
143
0.0393700787
147
0.625
171
     3
172
     1
178
     0
271
     2
272
     2
274
     3
278
    44
283
     0
284
     8
340
11
  0
ENDTAB
  0
TABLE
  2
BLOCK_RECORD
  5
1
330
0
100
AcDbSymbolTable
 70
     2
  0
BLOCK_RECORD
  5
1F
330
1
100
AcDbSymbolTableRecord
100
AcDbBlockTableRecord
  2
*Model_Space
340
22
  0
BLOCK_RECORD
  5
1B
330
1
100
AcDbSymbolTableRecord
100
AcDbBlockTableRecord
  2
*Paper_Space
340
1E
  0
BLOCK_RECORD
  5
23
330
1
100
AcDbSymbolTableRecord
100
AcDbBlockTableRecord
  2
*Paper_Space0
340
26
  0
BLOCK_RECORD
  5
30B
330
1
100
AcDbSymbolTableRecord
100
AcDbBlockTableRecord
  2
*Paper_Space1
340
30C
  0
ENDTAB
  0
ENDSEC
  0
SECTION
  2
BLOCKS
  0
BLOCK
  5
20
330
1F
100
AcDbEntity
  8
0
100
AcDbBlockBegin
  2
*Model_Space
 70
     0
 10
0.0
 20
0.0
 30
0.0
  3
*Model_Space
  1

  0
ENDBLK
  5
21
330
1F
100
AcDbEntity
  8
0
100
AcDbBlockEnd
  0
BLOCK
  5
1C
330
1B
100
AcDbEntity
 67
     1
  8
0
100
AcDbBlockBegin
  2
*Paper_Space
 70
     0
 10
0.0
 20
0.0
 30
0.0
  3
*Paper_Space
  1

  0
ENDBLK
  5
1D
330
1B
100
AcDbEntity
 67
     1
  8
0
100
AcDbBlockEnd
  0
BLOCK
  5
24
330
23
100
AcDbEntity
  8
0
100
AcDbBlockBegin
  2
*Paper_Space0
 70
     0
 10
0.0
 20
0.0
 30
0.0
  3
*Paper_Space0
  1

  0
LWPOLYLINE
  5
FD
330
23
100
AcDbEntity
  8
0
  6
Continuous
 62
     7
370
    25
100
AcDbPolyline
 90
        8
 70
   128
 43
0.0
 10
-35.9042943632
 20
-16.0990009864
 10
-39.1043089162
 20
-15.6380570016
 10
-42.3350281131
 20
-15.4085508698
 10
-45.572249411
 20
-15.3462630804
 10
-55.3868863526
 20
-15.3726135506
 10
-65.0271921377
 20
-15.3729266503
 10
-72.7613614122
 20
-15.3750187849
 10
-80.4955315623
 20
-15.3739951564
  0
LWPOLYLINE
  5
FF
330
23
100
AcDbEntity
  8
0
  6
Continuous
 62
     7
370
    25
100
AcDbPolyline
 90
        9
 70
   128
 43
0.0
 10
-80.5173659653
 20
-15.2961907087
 10
-76.5181979055
 20
-15.2962263418
 10
-65.1710502356
 20
-15.293438946
 10
-53.8239013952
 20
-15.2923100181
 10
-50.2289343797
 20
-15.2616808184
 10
-46.6264676685
 20
-15.2334565789
 10
-43.0295460174
 20
-15.2938011066
 10
-39.451214182
 20
-15.5288782084
 10
-35.9045169179
 20
-16.0248516914
  0
LWPOLYLINE
  5
101
330
23
100
AcDbEntity
  8
0
  6
Continuous
 62
     7
370
    25
100
AcDbPolyline
 90
        3
 70
   128
 43
0.0
 10
80.495528061
 20
-15.3739951786
 10
80.5175261649
 20
-15.2977902844
 10
80.5179690433
 20
-15.2961856621
  0
LWPOLYLINE
  5
102
330
23
100
AcDbEntity
  8
0
  6
Continuous
 62
     7
370
    25
100
AcDbPolyline
 90
        8
 70
   128
 43
0.0
 10
80.4955281311
 20
-15.373995157
 10
72.7692512987
 20
-15.375021727
 10
65.0429738791
 20
-15.3729310774
 10
50.4738374023
 20
-15.367656062
 10
46.8318474184
 20
-15.3442481176
 10
43.1903970689
 20
-15.3717992887
 10
39.531920473
 20
-15.5885390015
 10
35.9044946795
 20
-16.0989632726
  0
LWPOLYLINE
  5
104
330
23
100
AcDbEntity
  8
0
  6
Continuous
 62
     7
370
    25
100
AcDbPolyline
 90
        9
 70
   128
 43
0.0
 10
80.5179624559
 20
-15.2961911863
 10
76.5178297205
 20
-15.2962265405
 10
65.1701169262
 20
-15.2934396735
 10
53.8224029577
 20
-15.2923087182
 10
50.2278496735
 20
-15.2616869327
 10
46.6257987779
 20
-15.2334756032
 10
43.0292916044
 20
-15.2938191193
 10
39.4513694865
 20
-15.528861871
 10
35.9050737578
 20
-16.0247482479
  0
LWPOLYLINE
  5
10A
330
23
100
AcDbEntity
  8
0
  6
Continuous
 62
     7
370
    25
100
AcDbPolyline
 90
        3
 70
   128
 43
0.0
 10
18.9517429084
 20
16.1596488935
 10
18.3610580688
 20
17.2907832767
 10
18.1572233378
 20
18.5505032022
  0
LWPOLYLINE
  5
112
330
23
100
AcDbEntity
  8
0
  6
Continuous
 62
     7
370
    25
100
AcDbPolyline
 90
        3
 70
   128
 43
0.0
 10
18.6558509919
 20
-13.8612605091
 10
18.8407561959
 20
-12.6600010515
 10
19.378339757
 20
-11.5699728929
  0
CIRCLE
  5
153
330
23
100
AcDbEntity
  8
0
  6
Continuous
 62
     7
370
    25
100
AcDbCircle
 10
-75.0
 20
19.0
 30
0.0
 40
2.131705621053968
  0
LWPOLYLINE
  5
16B
330
23
100
AcDbEntity
  8
0
  6
Continuous
 62
     7
370
    25
100
AcDbPolyline
 90
        3
 70
   128
 43
0.0
 10
-5.4095834279
 20
-26.6316964986
 10
-5.5308243921
 20
-26.6277148151
 10
-5.5738122194
 20
-26.6362126681
  0
CIRCLE
  5
1B0
330
23
100
AcDbEntity
  8
0
  6
Continuous
 62
     7
370
    25
100
AcDbCircle
 10
75.0
 20
19.0
 30
0.0
 40
2.03737161844758
  0
CIRCLE
  5
1B3
330
23
100
AcDbEntity
  8
0
  6
Continuous
 62
     7
370
    25
100
AcDbCircle
 10
-75.0
 20
19.0
 30
0.0
 40
2.037371618451971
  0
LWPOLYLINE
  5
1B4
330
23
100
AcDbEntity
  8
0
  6
Continuous
 62
     7
370
    25
100
AcDbPolyline
 90
        5
 70
   128
 43
0.0
 10
-80.4955315919
 20
-15.3733936511
 10
-81.9778713972
 20
-15.3737949209
 10
-83.4602112745
 20
-15.3738824993
 10
-84.5956440443
 20
-15.3730286509
 10
-85.7310773262
 20
-15.3744324928
  0
LWPOLYLINE
  5
1B8
330
23
100
AcDbEntity
  8
0
  6
Continuous
 62
     7
370
    25
100
AcDbPolyline
 90
        5
 70
   128
 43
0.0
 10
85.7310773262
 20
-15.3744324928
 10
84.1543992038
 20
-15.3735329919
 10
82.5778724807
 20
-15.3739032453
 10
81.5367003163
 20
-15.3736863536
 10
80.4955281613
 20
-15.3733936501
  0
LWPOLYLINE
  5
1C6
330
23
100
AcDbEntity
  8
0
  6
Continuous
 62
     7
370
    25
100
AcDbPolyline
 90
        3
 70
   128
 43
0.0
 10
35.3573601825
 20
-16.0481740745
 10
35.6287547869
 20
-16.1112781266
 10
35.9044947011
 20
-16.0989633875
  0
LWPOLYLINE
  5
1D2
330
23
100
AcDbEntity
  8
0
  6
Continuous
 62
     7
370
    25
100
AcDbPolyline
 90
        3
 70
   128
 43
0.0
 10
-35.9042943844
 20
-16.0990010986
 10
-35.628544332
 20
-16.1113160998
 10
-35.3571625528
 20
-16.0482154291
  0
LWPOLYLINE
  5
1DE
330
23
100
AcDbEntity
  8
0
  6
Continuous
 62
     7
370
    25
100
AcDbPolyline
 90
       19
 70
   128
 43
0.0
 10
-85.0000678791
 20
-17.9771193265
 10
-49.9644138182
 20
-17.9736145006
 10
-45.4228054158
 20
-17.9495425277
 10
-43.4763142025
 20
-17.9689890174
 10
-41.2829824108
 20
-18.0562108171
 10
-38.0289452954
 20
-18.382377947
 10
-36.375575067
 20
-18.6564956513
 10
-33.9286871405
 20
-19.2131729665
 10
-31.029046224
 20
-20.1258885612
 10
-27.9661556234
 20
-21.4040595617
 10
-25.8780771662
 20
-22.4745071431
 10
-23.3656220142
 20
-24.004885057
 10
-21.6867156566
 20
-25.2037353563
 10
-20.0345210175
 20
-26.4407291661
 10
-16.6253264995
 20
-28.6394612538
 10
-13.2935708253
 20
-30.2767546772
 10
-9.9213921489
 20
-31.5063127327
 10
-8.0200524571
 20
-32.0256183167
 10
-4.1139247684
 20
-32.7318765473
  0
LWPOLYLINE
  5
1DF
330
23
100
AcDbEntity
  8
0
  6
Continuous
 62
     7
370
    25
100
AcDbPolyline
 90
       24
 70
   128
 43
0.0
 10
4.1139247684
 20
-32.731840581
 10
6.8074601046
 20
-32.2950873127
 10
9.4574669106
 20
-31.644004856
 10
12.0456021369
 20
-30.7790335136
 10
14.7229487247
 20
-29.6288548919
 10
16.74624576
 20
-28.5716877086
 10
18.6927940009
 20
-27.3793966356
 10
20.2689307332
 20
-26.2620584164
 10
21.8140553298
 20
-25.10059628
 10
24.2170481967
 20
-23.4544282392
 10
27.2800620909
 20
-21.7370925302
 10
29.8417523255
 20
-20.5817238544
 10
31.818871493
 20
-19.8487520689
 10
34.6925278712
 20
-19.0184764028
 10
36.6964552778
 20
-18.5966003568
 10
39.7484419504
 20
-18.1762709654
 10
42.5669704505
 20
-17.9950737126
 10
45.3921287906
 20
-17.9493648378
 10
48.9842038497
 20
-17.9694172174
 10
51.0318219457
 20
-17.9753305801
 10
53.0794878484
 20
-17.9758564846
 10
59.7198690719
 20
-17.9751610531
 10
72.3599188465
 20
-17.9780161237
 10
84.9999696423
 20
-17.9770946352
  0
CIRCLE
  5
1FA
330
23
100
AcDbEntity
  8
0
  6
Continuous
 62
     7
370
    25
100
AcDbCircle
 10
0.0
 20
2.0
 30
0.0
 40
9.478596972779311
  0
LWPOLYLINE
  5
209
330
23
100
AcDbEntity
  8
0
  6
Continuous
 62
     7
370
    25
100
AcDbPolyline
 90
        3
 70
   128
 43
0.0
 10
5.4095993813
 20
-29.1320337958
 10
5.4977709806
 20
-29.1278103341
 10
5.5738122194
 20
-29.1200038977
  0
CIRCLE
  5
212
330
23
100
AcDbEntity
  8
0
  6
Continuous
 62
     7
370
    25
100
AcDbCircle
 10
0.0
 20
2.0
 30
0.0
 40
9.479053922110074
  0
LWPOLYLINE
  5
219
330
23
100
AcDbEntity
  8
0
  6
Continuous
 62
     7
370
    25
100
AcDbPolyline
 90
        3
 70
   128
 43
0.0
 10
-3.998627654
 20
-32.6297811886
 10
-0.0276518102
 20
-32.8650138992
 10
3.998627654
 20
-32.6298492488
  0
LINE
  5
21A
330
23
100
AcDbEntity
  8
0
  6
Continuous
 62
     7
370
    25
100
AcDbLine
 10
-80.5173675438
 20
-15.2961849639
 30
0.0
 11
-80.4955314919
 21
-15.3739934524
 31
0.0
  0
LINE
  5
21B
330
23
100
AcDbEntity
  8
0
  6
Continuous
 62
     7
370
    25
100
AcDbLine
 10
-35.9040522791
 20
-16.0249424766
 30
0.0
 11
-35.9042944266
 21
-16.0990013229
 31
0.0
  0
LINE
  5
21C
330
23
100
AcDbEntity
  8
0
  6
Continuous
 62
     7
370
    25
100
AcDbLine
 10
35.9050866444
 20
-16.0247458541
 30
0.0
 11
35.9044946795
 21
-16.0989632726
 31
0.0
  0
LINE
  5
21D
330
23
100
AcDbEntity
  8
0
  6
Continuous
 62
     7
370
    25
100
AcDbLine
 10
-18.9517429083
 20
16.1596488935
 30
0.0
 11
-18.8601001822
 21
16.1246726221
 31
0.0
  0
LINE
  5
21E
330
23
100
AcDbEntity
  8
0
  6
Continuous
 62
     7
370
    25
100
AcDbLine
 10
-18.1572233378
 20
18.5505032022
 30
0.0
 11
-18.0628893351
 21
18.519104848
 31
0.0
  0
LINE
  5
21F
330
23
100
AcDbEntity
  8
0
  6
Continuous
 62
     7
370
    25
100
AcDbLine
 10
18.1572233378
 20
18.5505032022
 30
0.0
 11
18.0628893533
 21
18.519104854
 31
0.0
  0
LINE
  5
220
330
23
100
AcDbEntity
  8
0
  6
Continuous
 62
     7
370
    25
100
AcDbLine
 10
18.8601001461
 20
16.1246726083
 30
0.0
 11
18.9517429083
 21
16.1596488935
 31
0.0
  0
LINE
  5
221
330
23
100
AcDbEntity
  8
0
  6
Continuous
 62
     7
370
    25
100
AcDbLine
 10
-18.6558509919
 20
-13.8612605091
 30
0.0
 11
-18.5615170053
 21
-13.8314684867
 31
0.0
  0
LINE
  5
222
330
23
100
AcDbEntity
  8
0
  6
Continuous
 62
     7
370
    25
100
AcDbLine
 10
-19.2864531002
 20
-11.5367086335
 30
0.0
 11
-19.3783397569
 21
-11.5699728929
 31
0.0
  0
LINE
  5
223
330
23
100
AcDbEntity
  8
0
  6
Continuous
 62
     7
370
    25
100
AcDbLine
 10
19.3783397569
 20
-11.5699728929
 30
0.0
 11
19.2864531326
 21
-11.5367086453
 31
0.0
  0
LINE
  5
224
330
23
100
AcDbEntity
  8
0
  6
Continuous
 62
     7
370
    25
100
AcDbLine
 10
18.6558509919
 20
-13.8612605091
 30
0.0
 11
18.5615169891
 21
-13.8314684816
 31
0.0
  0
LINE
  5
225
330
23
100
AcDbEntity
  8
0
  6
Continuous
 62
     7
370
    25
100
AcDbLine
 10
-17.880504097
 20
-20.8798385524
 30
0.0
 11
-17.787819607
 21
-20.832295731
 31
0.0
  0
LINE
  5
226
330
23
100
AcDbEntity
  8
0
  6
Continuous
 62
     7
370
    25
100
AcDbLine
 10
-18.5615169891
 20
-19.2537279149
 30
0.0
 11
-18.6558509919
 21
-19.2999732328
 31
0.0
  0
LINE
  5
227
330
23
100
AcDbEntity
  8
0
  6
Continuous
 62
     7
370
    25
100
AcDbLine
 10
18.6558509919
 20
-19.2999732328
 30
0.0
 11
18.5615169618
 21
-19.2537279015
 31
0.0
  0
LINE
  5
228
330
23
100
AcDbEntity
  8
0
  6
Continuous
 62
     7
370
    25
100
AcDbLine
 10
17.787819607
 20
-20.8322957309
 30
0.0
 11
17.8805040973
 21
-20.8798385526
 31
0.0
  0
LINE
  5
229
330
23
100
AcDbEntity
  8
0
  6
Continuous
 62
     7
370
    25
100
AcDbLine
 10
26.164749863
 20
-12.5595385513
 30
0.0
 11
27.9525301345
 21
-15.6560648142
 31
0.0
  0
LINE
  5
22A
330
23
100
AcDbEntity
  8
0
  6
Continuous
 62
     7
370
    25
100
AcDbLine
 10
24.0999141275
 20
-13.751672019
 30
0.0
 11
26.164749863
 21
-12.5595385513
 31
0.0
  0
LINE
  5
22B
330
23
100
AcDbEntity
  8
0
  6
Continuous
 62
     7
370
    25
100
AcDbLine
 10
25.887694399
 20
-16.8481982819
 30
0.0
 11
24.0999141275
 21
-13.751672019
 31
0.0
  0
LINE
  5
22C
330
23
100
AcDbEntity
  8
0
  6
Continuous
 62
     7
370
    25
100
AcDbLine
 10
27.9525301345
 20
-15.6560648142
 30
0.0
 11
25.887694399
 21
-16.8481982819
 31
0.0
  0
LINE
  5
22D
330
23
100
AcDbEntity
  8
0
  6
Continuous
 62
     7
370
    25
100
AcDbLine
 10
82.8690301226
 20
-4.1
 30
0.0
 11
73.5
 21
-4.1
 31
0.0
  0
LINE
  5
22E
330
23
100
AcDbEntity
  8
0
  6
Continuous
 62
     7
370
    25
100
AcDbLine
 10
82.8376110058
 20
-10.8015448962
 30
0.0
 11
82.8376110058
 21
-4.1
 31
0.0
  0
LINE
  5
22F
330
23
100
AcDbEntity
  8
0
  6
Continuous
 62
     7
370
    25
100
AcDbLine
 10
78.8382202251
 20
-14.8009356769
 30
0.0
 11
78.0
 21
-14.8009356769
 31
0.0
  0
LINE
  5
230
330
23
100
AcDbEntity
  8
0
  6
Continuous
 62
     7
370
    25
100
AcDbLine
 10
78.0
 20
-14.8009356769
 30
0.0
 11
78.0
 21
-14.99313827
 31
0.0
  0
LINE
  5
231
330
23
100
AcDbEntity
  8
0
  6
Continuous
 62
     7
370
    25
100
AcDbLine
 10
43.2892433005
 20
-14.99313827
 30
0.0
 11
78.0
 21
-14.99313827
 31
0.0
  0
LINE
  5
232
330
23
100
AcDbEntity
  8
0
  6
Continuous
 62
     7
370
    25
100
AcDbLine
 10
18.0980762114
 20
-23.3467875173
 30
0.0
 11
18.4312911557
 21
-23.9239327307
 31
0.0
  0
LINE
  5
233
330
23
100
AcDbEntity
  8
0
  6
Continuous
 62
     7
370
    25
100
AcDbLine
 10
12.9019237886
 20
-26.3467875173
 30
0.0
 11
18.0980762114
 21
-23.3467875173
 31
0.0
  0
LINE
  5
234
330
23
100
AcDbEntity
  8
0
  6
Continuous
 62
     7
370
    25
100
AcDbLine
 10
13.2837626307
 20
-27.008151792
 30
0.0
 11
12.9019237886
 21
-26.3467875173
 31
0.0
  0
LINE
  5
235
330
23
100
AcDbEntity
  8
0
  6
Continuous
 62
     7
370
    25
100
AcDbLine
 10
5.6317056212
 20
-29.4124138541
 30
0.0
 11
6.0
 21
-29.4124138541
 31
0.0
  0
LINE
  5
236
330
23
100
AcDbEntity
  8
0
  6
Continuous
 62
     7
370
    25
100
AcDbLine
 10
5.6317056212
 20
-29.4124138541
 30
0.0
 11
5.6317056212
 21
-26.6835550086
 31
0.0
  0
LINE
  5
237
330
23
100
AcDbEntity
  8
0
  6
Continuous
 62
     7
370
    25
100
AcDbLine
 10
17.8805040972
 20
-20.8798385527
 30
0.0
 11
17.5223614549
 21
-21.1599227247
 31
0.0
  0
LINE
  5
238
330
23
100
AcDbEntity
  8
0
  6
Continuous
 62
     7
370
    25
100
AcDbLine
 10
18.6558509919
 20
-19.2999732328
 30
0.0
 11
18.6558509919
 21
-13.8612605091
 31
0.0
  0
LINE
  5
239
330
23
100
AcDbEntity
  8
0
  6
Continuous
 62
     7
370
    25
100
AcDbLine
 10
18.1572233378
 20
18.5505032022
 30
0.0
 11
18.1572233378
 21
24.6856185744
 31
0.0
  0
LINE
  5
23A
330
23
100
AcDbEntity
  8
0
  6
Continuous
 62
     7
370
    25
100
AcDbLine
 10
65.0524432299
 20
24.6856185744
 30
0.0
 11
18.1572233378
 21
24.6856185744
 31
0.0
  0
LINE
  5
23B
330
23
100
AcDbEntity
  8
0
  6
Continuous
 62
     7
370
    25
100
AcDbLine
 10
65.0524432299
 20
25.1856947385
 30
0.0
 11
65.0524432299
 21
24.6856185744
 31
0.0
  0
LINE
  5
23C
330
23
100
AcDbEntity
  8
0
  6
Continuous
 62
     7
370
    25
100
AcDbLine
 10
78.8382202251
 20
25.1856947385
 30
0.0
 11
65.0524432299
 21
25.1856947385
 31
0.0
  0
LINE
  5
23D
330
23
100
AcDbEntity
  8
0
  6
Continuous
 62
     7
370
    25
100
AcDbLine
 10
82.8376110058
 20
0.1
 30
0.0
 11
82.8376110058
 21
21.1863039578
 31
0.0
  0
LINE
  5
23E
330
23
100
AcDbEntity
  8
0
  6
Continuous
 62
     7
370
    25
100
AcDbLine
 10
73.5
 20
0.1
 30
0.0
 11
82.8690301226
 21
0.1
 31
0.0
  0
LINE
  5
23F
330
23
100
AcDbEntity
  8
0
  6
Continuous
 62
     7
370
    25
100
AcDbLine
 10
17.463851278
 20
-21.0859263513
 30
0.0
 11
17.5223614548
 21
-21.1599227246
 31
0.0
  0
LINE
  5
240
330
23
100
AcDbEntity
  8
0
  6
Continuous
 62
     7
370
    25
100
AcDbLine
 10
5.6317056212
 20
-26.6835550085
 30
0.0
 11
5.5738122194
 21
-26.6362126681
 31
0.0
  0
LINE
  5
241
330
23
100
AcDbEntity
  8
0
  6
Continuous
 62
     7
370
    25
100
AcDbLine
 10
5.4094302976
 20
-26.6317274577
 30
0.0
 11
5.5738122194
 21
-26.6362126681
 31
0.0
  0
LINE
  5
242
330
23
100
AcDbEntity
  8
0
  6
Continuous
 62
     7
370
    25
100
AcDbLine
 10
-17.5223614546
 20
-21.1599227243
 30
0.0
 11
-17.4638513672
 21
-21.0859262808
 31
0.0
  0
LINE
  5
243
330
23
100
AcDbEntity
  8
0
  6
Continuous
 62
     7
370
    25
100
AcDbLine
 10
-17.880504097
 20
-20.8798385524
 30
0.0
 11
-17.5223614537
 21
-21.1599227232
 31
0.0
  0
LINE
  5
244
330
23
100
AcDbEntity
  8
0
  6
Continuous
 62
     7
370
    25
100
AcDbLine
 10
-72.9
 20
-1.0
 30
0.0
 11
-72.9
 21
-4.4329824756
 31
0.0
  0
LINE
  5
245
330
23
100
AcDbEntity
  8
0
  6
Continuous
 62
     7
370
    25
100
AcDbLine
 10
-77.1
 20
-4.4329824756
 30
0.0
 11
-77.1
 21
-1.0
 31
0.0
  0
LINE
  5
246
330
23
100
AcDbEntity
  8
0
  6
Continuous
 62
     7
370
    25
100
AcDbLine
 10
-5.6317056212
 20
-29.4124138541
 30
0.0
 11
-5.6317056212
 21
-26.6835550085
 31
0.0
  0
LINE
  5
247
330
23
100
AcDbEntity
  8
0
  6
Continuous
 62
     7
370
    25
100
AcDbLine
 10
-6.0
 20
-29.4124138541
 30
0.0
 11
-5.6317056212
 21
-29.4124138541
 31
0.0
  0
LINE
  5
248
330
23
100
AcDbEntity
  8
0
  6
Continuous
 62
     7
370
    25
100
AcDbLine
 10
-13.2837626307
 20
-27.008151792
 30
0.0
 11
-12.9019237886
 21
-26.3467875173
 31
0.0
  0
LINE
  5
249
330
23
100
AcDbEntity
  8
0
  6
Continuous
 62
     7
370
    25
100
AcDbLine
 10
-18.0980762114
 20
-23.3467875173
 30
0.0
 11
-12.9019237886
 21
-26.3467875173
 31
0.0
  0
LINE
  5
24A
330
23
100
AcDbEntity
  8
0
  6
Continuous
 62
     7
370
    25
100
AcDbLine
 10
-18.0980762114
 20
-23.3467875173
 30
0.0
 11
-18.4312911557
 21
-23.9239327307
 31
0.0
  0
LINE
  5
24B
330
23
100
AcDbEntity
  8
0
  6
Continuous
 62
     7
370
    25
100
AcDbLine
 10
-78.0
 20
-14.99313827
 30
0.0
 11
-43.2892433005
 21
-14.99313827
 31
0.0
  0
LINE
  5
24C
330
23
100
AcDbEntity
  8
0
  6
Continuous
 62
     7
370
    25
100
AcDbLine
 10
-78.0
 20
-14.99313827
 30
0.0
 11
-78.0
 21
-14.8009356769
 31
0.0
  0
LINE
  5
24D
330
23
100
AcDbEntity
  8
0
  6
Continuous
 62
     7
370
    25
100
AcDbLine
 10
-78.0
 20
-14.8009356769
 30
0.0
 11
-78.8382202251
 21
-14.8009356769
 31
0.0
  0
LINE
  5
24E
330
23
100
AcDbEntity
  8
0
  6
Continuous
 62
     7
370
    25
100
AcDbLine
 10
-82.8376110058
 20
21.1863039578
 30
0.0
 11
-82.8376110058
 21
-10.8015448962
 31
0.0
  0
LINE
  5
24F
330
23
100
AcDbEntity
  8
0
  6
Continuous
 62
     7
370
    25
100
AcDbLine
 10
-65.0524432299
 20
25.1856947385
 30
0.0
 11
-78.8382202251
 21
25.1856947385
 31
0.0
  0
LINE
  5
250
330
23
100
AcDbEntity
  8
0
  6
Continuous
 62
     7
370
    25
100
AcDbLine
 10
-65.0524432299
 20
24.6856185744
 30
0.0
 11
-65.0524432299
 21
25.1856947385
 31
0.0
  0
LINE
  5
251
330
23
100
AcDbEntity
  8
0
  6
Continuous
 62
     7
370
    25
100
AcDbLine
 10
-18.1572233378
 20
24.6856185744
 30
0.0
 11
-65.0524432299
 21
24.6856185744
 31
0.0
  0
LINE
  5
252
330
23
100
AcDbEntity
  8
0
  6
Continuous
 62
     7
370
    25
100
AcDbLine
 10
-18.1572233378
 20
18.5505032022
 30
0.0
 11
-18.1572233378
 21
24.6856185744
 31
0.0
  0
LINE
  5
253
330
23
100
AcDbEntity
  8
0
  6
Continuous
 62
     7
370
    25
100
AcDbLine
 10
-18.6558509919
 20
-19.2999732328
 30
0.0
 11
-18.6558509919
 21
-13.8612605091
 31
0.0
  0
LINE
  5
254
330
23
100
AcDbEntity
  8
0
  6
Continuous
 62
     7
370
    25
100
AcDbLine
 10
-5.5738122194
 20
-26.6362126681
 30
0.0
 11
-5.6317056212
 21
-26.6835550085
 31
0.0
  0
LINE
  5
255
330
23
100
AcDbEntity
  8
0
  6
Continuous
 62
     7
370
    25
100
AcDbLine
 10
18.5615169891
 20
-13.8314684816
 30
0.0
 11
18.5615169891
 21
-19.2537177348
 31
0.0
  0
LINE
  5
256
330
23
100
AcDbEntity
  8
0
  6
Continuous
 62
     7
370
    25
100
AcDbLine
 10
82.8690301226
 20
21.1863039578
 30
0.0
 11
82.8376110058
 21
21.1863039578
 31
0.0
  0
LINE
  5
257
330
23
100
AcDbEntity
  8
0
  6
Continuous
 62
     7
370
    25
100
AcDbLine
 10
78.8382202251
 20
25.2171138553
 30
0.0
 11
78.8382202251
 21
25.1856947385
 31
0.0
  0
LINE
  5
258
330
23
100
AcDbEntity
  8
0
  6
Continuous
 62
     7
370
    25
100
AcDbLine
 10
65.0524432299
 20
25.1856947385
 30
0.0
 11
65.021024113
 21
25.2171138553
 31
0.0
  0
LINE
  5
259
330
23
100
AcDbEntity
  8
0
  6
Continuous
 62
     7
370
    25
100
AcDbLine
 10
78.8382202251
 20
25.2171138553
 30
0.0
 11
65.021024113
 21
25.2171138553
 31
0.0
  0
LINE
  5
25A
330
23
100
AcDbEntity
  8
0
  6
Continuous
 62
     7
370
    25
100
AcDbLine
 10
82.8690301226
 20
0.1
 30
0.0
 11
82.8690301226
 21
21.1863039578
 31
0.0
  0
LINE
  5
25B
330
23
100
AcDbEntity
  8
0
  6
Continuous
 62
     7
370
    25
100
AcDbLine
 10
5.5738122194
 20
-29.1200038977
 30
0.0
 11
5.5373716185
 21
-29.1321408946
 31
0.0
  0
LINE
  5
25C
330
23
100
AcDbEntity
  8
0
  6
Continuous
 62
     7
370
    25
100
AcDbLine
 10
5.5738122194
 20
-26.6362126681
 30
0.0
 11
5.5738122194
 21
-29.1200038977
 31
0.0
  0
LINE
  5
25D
330
23
100
AcDbEntity
  8
0
  6
Continuous
 62
     7
370
    25
100
AcDbLine
 10
5.5373716185
 20
-29.3162423345
 30
0.0
 11
5.6317056212
 21
-29.4124138541
 31
0.0
  0
LINE
  5
25E
330
23
100
AcDbEntity
  8
0
  6
Continuous
 62
     7
370
    25
100
AcDbLine
 10
5.5373716185
 20
-29.1321408946
 30
0.0
 11
5.5373716185
 21
-29.3162423345
 31
0.0
  0
LINE
  5
25F
330
23
100
AcDbEntity
  8
0
  6
Continuous
 62
     7
370
    25
100
AcDbLine
 10
78.9591892042
 20
-14.8313524167
 30
0.0
 11
78.869639342
 21
-14.8323547937
 31
0.0
  0
LINE
  5
260
330
23
100
AcDbEntity
  8
0
  6
Continuous
 62
     7
370
    25
100
AcDbLine
 10
78.8382202251
 20
-14.8009356769
 30
0.0
 11
78.869639342
 21
-14.8323547937
 31
0.0
  0
LINE
  5
261
330
23
100
AcDbEntity
  8
0
  6
Continuous
 62
     7
370
    25
100
AcDbLine
 10
82.8690301226
 20
-10.8329640131
 30
0.0
 11
82.8376110058
 21
-10.8015448962
 31
0.0
  0
LINE
  5
262
330
23
100
AcDbEntity
  8
0
  6
Continuous
 62
     7
370
    25
100
AcDbLine
 10
82.8690301226
 20
-4.1
 30
0.0
 11
82.8690301226
 21
-10.8329640131
 31
0.0
  0
LINE
  5
263
330
23
100
AcDbEntity
  8
0
  6
Continuous
 62
     7
370
    25
100
AcDbLine
 10
78.0943340027
 20
-14.8323547937
 30
0.0
 11
78.0
 21
-14.8009356769
 31
0.0
  0
LINE
  5
264
330
23
100
AcDbEntity
  8
0
  6
Continuous
 62
     7
370
    25
100
AcDbLine
 10
78.0943340027
 20
-14.8323547937
 30
0.0
 11
78.8696392622
 21
-14.8323547937
 31
0.0
  0
LINE
  5
265
330
23
100
AcDbEntity
  8
0
  6
Continuous
 62
     7
370
    25
100
AcDbLine
 10
-18.0628893351
 20
24.7170376913
 30
0.0
 11
-18.1572233378
 21
24.6856185744
 31
0.0
  0
LINE
  5
266
330
23
100
AcDbEntity
  8
0
  6
Continuous
 62
     7
370
    25
100
AcDbLine
 10
-18.0628893351
 20
18.5191247413
 30
0.0
 11
-18.0628893351
 21
24.7170376913
 31
0.0
  0
LINE
  5
267
330
23
100
AcDbEntity
  8
0
  6
Continuous
 62
     7
370
    25
100
AcDbLine
 10
-18.5615169891
 20
-19.2537279149
 30
0.0
 11
-18.5615169891
 21
-13.8314684816
 31
0.0
  0
LINE
  5
268
330
23
100
AcDbEntity
  8
0
  6
Continuous
 62
     7
370
    25
100
AcDbLine
 10
18.1572233378
 20
24.6856185744
 30
0.0
 11
18.0628893351
 21
24.7170376913
 31
0.0
  0
LINE
  5
269
330
23
100
AcDbEntity
  8
0
  6
Continuous
 62
     7
370
    25
100
AcDbLine
 10
18.0628893351
 20
24.7170376913
 30
0.0
 11
18.0628893351
 21
18.5191247411
 31
0.0
  0
LINE
  5
26A
330
23
100
AcDbEntity
  8
0
  6
Continuous
 62
     7
370
    25
100
AcDbLine
 10
-82.8376110058
 20
-10.8015448962
 30
0.0
 11
-82.8690301226
 21
-10.8329640131
 31
0.0
  0
LINE
  5
26B
330
23
100
AcDbEntity
  8
0
  6
Continuous
 62
     7
370
    25
100
AcDbLine
 10
-78.869639342
 20
-14.8323547937
 30
0.0
 11
-78.8382202251
 21
-14.8009356769
 31
0.0
  0
LINE
  5
26C
330
23
100
AcDbEntity
  8
0
  6
Continuous
 62
     7
370
    25
100
AcDbLine
 10
-78.9591945108
 20
-14.8313524503
 30
0.0
 11
-78.869639342
 21
-14.8323547937
 31
0.0
  0
LINE
  5
26D
330
23
100
AcDbEntity
  8
0
  6
Continuous
 62
     7
370
    25
100
AcDbLine
 10
-82.8690301226
 20
-10.8329640131
 30
0.0
 11
-82.8690301226
 21
21.1863039578
 31
0.0
  0
LINE
  5
26E
330
23
100
AcDbEntity
  8
0
  6
Continuous
 62
     7
370
    25
100
AcDbLine
 10
-82.8690301226
 20
21.1863039578
 30
0.0
 11
-82.8376110058
 21
21.1863039578
 31
0.0
  0
LINE
  5
26F
330
23
100
AcDbEntity
  8
0
  6
Continuous
 62
     7
370
    25
100
AcDbLine
 10
-78.8382202251
 20
25.1856947385
 30
0.0
 11
-78.8382202251
 21
25.2171138553
 31
0.0
  0
LINE
  5
270
330
23
100
AcDbEntity
  8
0
  6
Continuous
 62
     7
370
    25
100
AcDbLine
 10
-78.8382202251
 20
25.2171138553
 30
0.0
 11
-65.021024113
 21
25.2171138553
 31
0.0
  0
LINE
  5
271
330
23
100
AcDbEntity
  8
0
  6
Continuous
 62
     7
370
    25
100
AcDbLine
 10
-65.021024113
 20
25.2171138553
 30
0.0
 11
-65.0524432299
 21
25.1856947385
 31
0.0
  0
LINE
  5
272
330
23
100
AcDbEntity
  8
0
  6
Continuous
 62
     7
370
    25
100
AcDbLine
 10
-78.0
 20
-14.8009356769
 30
0.0
 11
-78.0943340027
 21
-14.8323547937
 31
0.0
  0
LINE
  5
273
330
23
100
AcDbEntity
  8
0
  6
Continuous
 62
     7
370
    25
100
AcDbLine
 10
-78.869639342
 20
-14.8323547937
 30
0.0
 11
-78.0943340027
 21
-14.8323547937
 31
0.0
  0
LINE
  5
274
330
23
100
AcDbEntity
  8
0
  6
Continuous
 62
     7
370
    25
100
AcDbLine
 10
24.1356802207
 20
-13.7612555148
 30
0.0
 11
25.6977661622
 21
-16.4668677312
 31
0.0
  0
LINE
  5
275
330
23
100
AcDbEntity
  8
0
  6
Continuous
 62
     7
370
    25
100
AcDbLine
 10
25.6977661622
 20
-16.4668677312
 30
0.0
 11
25.6997939072
 21
-16.4675563128
 31
0.0
  0
LINE
  5
276
330
23
100
AcDbEntity
  8
0
  6
Continuous
 62
     7
370
    25
100
AcDbLine
 10
25.6737498794
 20
-16.4147972702
 30
0.0
 11
25.887694399
 21
-16.8481982819
 31
0.0
  0
LINE
  5
277
330
23
100
AcDbEntity
  8
0
  6
Continuous
 62
     7
370
    25
100
AcDbLine
 10
24.0999141275
 20
-13.751672019
 30
0.0
 11
24.1356802207
 21
-13.7612555148
 31
0.0
  0
LINE
  5
278
330
23
100
AcDbEntity
  8
0
  6
Continuous
 62
     7
370
    25
100
AcDbLine
 10
27.6841661079
 20
-15.254082919
 30
0.0
 11
27.9525301345
 21
-15.6560648142
 31
0.0
  0
LINE
  5
279
330
23
100
AcDbEntity
  8
0
  6
Continuous
 62
     7
370
    25
100
AcDbLine
 10
25.6737498794
 20
-16.4147972702
 30
0.0
 11
27.6841661079
 21
-15.254082919
 31
0.0
  0
LINE
  5
27A
330
23
100
AcDbEntity
  8
0
  6
Continuous
 62
     7
370
    25
100
AcDbLine
 10
-5.6317056212
 20
-29.4124138541
 30
0.0
 11
-5.5373716185
 21
-29.3162423345
 31
0.0
  0
LINE
  5
27B
330
23
100
AcDbEntity
  8
0
  6
Continuous
 62
     7
370
    25
100
AcDbLine
 10
-5.5738122194
 20
-29.1200038977
 30
0.0
 11
-5.5738122194
 21
-26.6362126681
 31
0.0
  0
LINE
  5
27C
330
23
100
AcDbEntity
  8
0
  6
Continuous
 62
     7
370
    25
100
AcDbLine
 10
-5.5373716185
 20
-29.1321408946
 30
0.0
 11
-5.5738122194
 21
-29.1200038977
 31
0.0
  0
LINE
  5
27D
330
23
100
AcDbEntity
  8
0
  6
Continuous
 62
     7
370
    25
100
AcDbLine
 10
-5.5373716185
 20
-29.3162423345
 30
0.0
 11
-5.5373716185
 21
-29.1321408946
 31
0.0
  0
LINE
  5
27E
330
23
100
AcDbEntity
  8
0
  6
Continuous
 62
     7
370
    25
100
AcDbLine
 10
-78.0943340027
 20
-14.8323547937
 30
0.0
 11
-78.0943340027
 21
-14.8988042673
 31
0.0
  0
LINE
  5
27F
330
23
100
AcDbEntity
  8
0
  6
Continuous
 62
     7
370
    25
100
AcDbLine
 10
-78.0943340027
 20
-14.8988042673
 30
0.0
 11
-78.0
 21
-14.99313827
 31
0.0
  0
LINE
  5
280
330
23
100
AcDbEntity
  8
0
  6
Continuous
 62
     7
370
    25
100
AcDbLine
 10
-65.021024113
 20
25.2171138553
 30
0.0
 11
-65.021024113
 21
24.7170376913
 31
0.0
  0
LINE
  5
281
330
23
100
AcDbEntity
  8
0
  6
Continuous
 62
     7
370
    25
100
AcDbLine
 10
-65.0524432299
 20
24.6856185744
 30
0.0
 11
-65.021024113
 21
24.7170376913
 31
0.0
  0
LINE
  5
282
330
23
100
AcDbEntity
  8
0
  6
Continuous
 62
     7
370
    25
100
AcDbLine
 10
-65.021024113
 20
24.7170376913
 30
0.0
 11
-18.0628893351
 21
24.7170376913
 31
0.0
  0
LINE
  5
283
330
23
100
AcDbEntity
  8
0
  6
Continuous
 62
     7
370
    25
100
AcDbLine
 10
26.164749863
 20
-12.5595385513
 30
0.0
 11
26.1551663672
 21
-12.5953046445
 31
0.0
  0
LINE
  5
284
330
23
100
AcDbEntity
  8
0
  6
Continuous
 62
     7
370
    25
100
AcDbLine
 10
26.1551663672
 20
-12.5953046445
 30
0.0
 11
24.1356802207
 21
-13.7612555148
 31
0.0
  0
LINE
  5
285
330
23
100
AcDbEntity
  8
0
  6
Continuous
 62
     7
370
    25
100
AcDbLine
 10
27.7288934457
 20
-15.3210799016
 30
0.0
 11
26.1551663672
 21
-12.5953046445
 31
0.0
  0
LINE
  5
286
330
23
100
AcDbEntity
  8
0
  6
Continuous
 62
     7
370
    25
100
AcDbLine
 10
65.021024113
 20
24.7170376913
 30
0.0
 11
65.0524432299
 21
24.6856185744
 31
0.0
  0
LINE
  5
287
330
23
100
AcDbEntity
  8
0
  6
Continuous
 62
     7
370
    25
100
AcDbLine
 10
65.021024113
 20
24.7170376913
 30
0.0
 11
65.021024113
 21
25.2171138553
 31
0.0
  0
LINE
  5
288
330
23
100
AcDbEntity
  8
0
  6
Continuous
 62
     7
370
    25
100
AcDbLine
 10
18.0628893351
 20
24.7170376913
 30
0.0
 11
65.021024113
 21
24.7170376913
 31
0.0
  0
LINE
  5
289
330
23
100
AcDbEntity
  8
0
  6
Continuous
 62
     7
370
    25
100
AcDbLine
 10
78.0943340027
 20
-14.8988042673
 30
0.0
 11
78.0943340027
 21
-14.8323547937
 31
0.0
  0
LINE
  5
28A
330
23
100
AcDbEntity
  8
0
  6
Continuous
 62
     7
370
    25
100
AcDbLine
 10
78.0
 20
-14.99313827
 30
0.0
 11
78.0943340027
 21
-14.8988042673
 31
0.0
  0
LINE
  5
28B
330
23
100
AcDbEntity
  8
0
  6
Continuous
 62
     7
370
    25
100
AcDbLine
 10
-84.1787399114
 20
-15.234754429
 30
0.0
 11
-85.7310773262
 21
-15.3744324928
 31
0.0
  0
LINE
  5
28C
330
23
100
AcDbEntity
  8
0
  6
Continuous
 62
     7
370
    25
100
AcDbLine
 10
85.7310773262
 20
-15.3744324928
 30
0.0
 11
84.1787399114
 21
-15.234754429
 31
0.0
  0
LINE
  5
28D
330
23
100
AcDbEntity
  8
0
  6
Continuous
 62
     7
370
    25
100
AcDbLine
 10
35.357360142
 20
-16.0481738809
 30
0.0
 11
35.3422266697
 21
-15.967026211
 31
0.0
  0
LINE
  5
28E
330
23
100
AcDbEntity
  8
0
  6
Continuous
 62
     7
370
    25
100
AcDbLine
 10
19.2930742679
 20
-23.4619842933
 30
0.0
 11
19.3321624865
 21
-23.5312718382
 31
0.0
  0
LINE
  5
28F
330
23
100
AcDbEntity
  8
0
  6
Continuous
 62
     7
370
    25
100
AcDbLine
 10
-19.3321624995
 20
-23.5312718612
 30
0.0
 11
-19.2930742749
 21
-23.4619843059
 31
0.0
  0
LINE
  5
290
330
23
100
AcDbEntity
  8
0
  6
Continuous
 62
     7
370
    25
100
AcDbLine
 10
-35.342126215
 20
-15.9670471985
 30
0.0
 11
-35.3571625126
 21
-16.0482152369
 31
0.0
  0
LINE
  5
291
330
23
100
AcDbEntity
  8
0
  6
Continuous
 62
     7
370
    25
100
AcDbLine
 10
88.0
 20
-16.7777012537
 30
0.0
 11
88.0
 21
28.5973692292
 31
0.0
  0
LINE
  5
292
330
23
100
AcDbEntity
  8
0
  6
Continuous
 62
     7
370
    25
100
AcDbLine
 10
4.1139247684
 20
-29.6467447511
 30
0.0
 11
4.1139247684
 21
-32.731840581
 31
0.0
  0
LINE
  5
293
330
23
100
AcDbEntity
  8
0
  6
Continuous
 62
     7
370
    25
100
AcDbLine
 10
6.0290586915
 20
-29.6467447511
 30
0.0
 11
4.1139247684
 21
-29.6467447511
 31
0.0
  0
LINE
  5
294
330
23
100
AcDbEntity
  8
0
  6
Continuous
 62
     7
370
    25
100
AcDbLine
 10
85.7310773262
 20
26.6954798646
 30
0.0
 11
85.7310773262
 21
-15.3744324928
 31
0.0
  0
LINE
  5
295
330
23
100
AcDbEntity
  8
0
  6
Continuous
 62
     7
370
    25
100
AcDbLine
 10
64.0
 20
26.6954798646
 30
0.0
 11
85.7310773262
 21
26.6954798646
 31
0.0
  0
LINE
  5
296
330
23
100
AcDbEntity
  8
0
  6
Continuous
 62
     7
370
    25
100
AcDbLine
 10
64.0
 20
26.6954798646
 30
0.0
 11
64.0
 21
25.6424891661
 31
0.0
  0
LINE
  5
297
330
23
100
AcDbEntity
  8
0
  6
Continuous
 62
     7
370
    25
100
AcDbLine
 10
19.0
 20
25.6948703203
 30
0.0
 11
64.0
 21
25.6948703203
 31
0.0
  0
LINE
  5
298
330
23
100
AcDbEntity
  8
0
  6
Continuous
 62
     7
370
    25
100
AcDbLine
 10
19.0
 20
26.6954798646
 30
0.0
 11
19.0
 21
25.6424891661
 31
0.0
  0
LINE
  5
299
330
23
100
AcDbEntity
  8
0
  6
Continuous
 62
     7
370
    25
100
AcDbLine
 10
-19.0
 20
26.6954798646
 30
0.0
 11
19.0
 21
26.6954798646
 31
0.0
  0
LINE
  5
29A
330
23
100
AcDbEntity
  8
0
  6
Continuous
 62
     7
370
    25
100
AcDbLine
 10
-19.0
 20
25.6424891661
 30
0.0
 11
-19.0
 21
26.6954798646
 31
0.0
  0
LINE
  5
29B
330
23
100
AcDbEntity
  8
0
  6
Continuous
 62
     7
370
    25
100
AcDbLine
 10
-64.0
 20
25.6948703203
 30
0.0
 11
-19.0
 21
25.6948703203
 31
0.0
  0
LINE
  5
29C
330
23
100
AcDbEntity
  8
0
  6
Continuous
 62
     7
370
    25
100
AcDbLine
 10
-64.0
 20
25.6424891661
 30
0.0
 11
-64.0
 21
26.6954798646
 31
0.0
  0
LINE
  5
29D
330
23
100
AcDbEntity
  8
0
  6
Continuous
 62
     7
370
    25
100
AcDbLine
 10
-85.7310773262
 20
26.6954798646
 30
0.0
 11
-64.0
 21
26.6954798646
 31
0.0
  0
LINE
  5
29E
330
23
100
AcDbEntity
  8
0
  6
Continuous
 62
     7
370
    25
100
AcDbLine
 10
-85.7310773262
 20
-15.3744324928
 30
0.0
 11
-85.7310773262
 21
26.6954798646
 31
0.0
  0
LINE
  5
29F
330
23
100
AcDbEntity
  8
0
  6
Continuous
 62
     7
370
    25
100
AcDbLine
 10
-4.1139247684
 20
-29.6467447511
 30
0.0
 11
-6.0196744176
 21
-29.6467447511
 31
0.0
  0
LINE
  5
2A0
330
23
100
AcDbEntity
  8
0
  6
Continuous
 62
     7
370
    25
100
AcDbLine
 10
-4.1139247684
 20
-29.6467447511
 30
0.0
 11
-4.1139247684
 21
-32.7318765473
 31
0.0
  0
LINE
  5
2A1
330
23
100
AcDbEntity
  8
0
  6
Continuous
 62
     7
370
    25
100
AcDbLine
 10
-88.0
 20
28.5973692292
 30
0.0
 11
-88.0
 21
-16.7777012537
 31
0.0
  0
LINE
  5
2A2
330
23
100
AcDbEntity
  8
0
  6
Continuous
 62
     7
370
    25
100
AcDbLine
 10
87.4003655038
 20
29.1970037254
 30
0.0
 11
-87.4003655038
 21
29.1970037254
 31
0.0
  0
LINE
  5
2A3
330
23
100
AcDbEntity
  8
0
  6
Continuous
 62
     7
370
    25
100
AcDbLine
 10
84.9999696497
 20
-17.9771732478
 30
0.0
 11
86.8011015521
 21
-17.9771664722
 31
0.0
  0
LINE
  5
2A4
330
23
100
AcDbEntity
  8
0
  6
Continuous
 62
     7
370
    25
100
AcDbLine
 10
-86.801101552
 20
-17.9771664722
 30
0.0
 11
-85.0000678823
 21
-17.9771732338
 31
0.0
  0
LINE
  5
2A5
330
23
100
AcDbEntity
  8
0
  6
Continuous
 62
     7
370
    25
100
AcDbLine
 10
-6.0208808801
 20
-29.5673080658
 30
0.0
 11
-6.0197880601
 21
-29.6476420719
 31
0.0
  0
LINE
  5
2A6
330
23
100
AcDbEntity
  8
0
  6
Continuous
 62
     7
370
    25
100
AcDbLine
 10
-4.5
 20
-29.5666123206
 30
0.0
 11
-4.5
 21
-29.5799682791
 31
0.0
  0
LINE
  5
2A7
330
23
100
AcDbEntity
  8
0
  6
Continuous
 62
     7
370
    25
100
AcDbLine
 10
-4.0484150443
 20
-29.5799661762
 30
0.0
 11
-4.1139247684
 21
-29.6467447511
 31
0.0
  0
LINE
  5
2A8
330
23
100
AcDbEntity
  8
0
  6
Continuous
 62
     7
370
    25
100
AcDbLine
 10
6.0289457278
 20
-29.6458443655
 30
0.0
 11
6.0280639602
 21
-29.5658943459
 31
0.0
  0
LINE
  5
2A9
330
23
100
AcDbEntity
  8
0
  6
Continuous
 62
     7
370
    25
100
AcDbLine
 10
4.0484150443
 20
-29.5799661762
 30
0.0
 11
4.1139247684
 21
-29.6467447511
 31
0.0
  0
LINE
  5
2AA
330
23
100
AcDbEntity
  8
0
  6
Continuous
 62
     7
370
    25
100
AcDbLine
 10
-4.5
 20
-29.5799682791
 30
0.0
 11
4.5
 21
-29.5799682791
 31
0.0
  0
LINE
  5
2AB
330
23
100
AcDbEntity
  8
0
  6
Continuous
 62
     7
370
    25
100
AcDbLine
 10
4.5
 20
-29.5799682791
 30
0.0
 11
4.5
 21
-29.5666120173
 31
0.0
  0
LINE
  5
2AC
330
23
100
AcDbEntity
  8
0
  6
Continuous
 62
     7
370
    25
100
AcDbLine
 10
-6.0208137098
 20
-29.5666123215
 30
0.0
 11
6.0281379075
 21
-29.5666123215
 31
0.0
  0
LINE
  5
2AD
330
23
100
AcDbEntity
  8
0
  6
Continuous
 62
     7
370
    25
100
AcDbLine
 10
-84.1777818556
 20
21.5438041965
 30
0.0
 11
-84.1787280812
 21
21.4462983191
 31
0.0
  0
LINE
  5
2AE
330
23
100
AcDbEntity
  8
0
  6
Continuous
 62
     7
370
    25
100
AcDbLine
 10
-84.1787280812
 20
21.4462983191
 30
0.0
 11
-84.1787284941
 21
-15.234754429
 31
0.0
  0
LINE
  5
2AF
330
23
100
AcDbEntity
  8
0
  6
Continuous
 62
     7
370
    25
100
AcDbLine
 10
-84.1777818556
 20
26.6430987104
 30
0.0
 11
-85.7310773262
 21
26.6954798646
 31
0.0
  0
LINE
  5
2B0
330
23
100
AcDbEntity
  8
0
  6
Continuous
 62
     7
370
    25
100
AcDbLine
 10
-84.1777818556
 20
26.6430987104
 30
0.0
 11
-84.1777818556
 21
21.5438041965
 31
0.0
  0
LINE
  5
2B1
330
23
100
AcDbEntity
  8
0
  6
Continuous
 62
     7
370
    25
100
AcDbLine
 10
84.1782549684
 20
26.6431141082
 30
0.0
 11
85.7310773262
 21
26.6954798646
 31
0.0
  0
LINE
  5
2B2
330
23
100
AcDbEntity
  8
0
  6
Continuous
 62
     7
370
    25
100
AcDbLine
 10
84.1787284941
 20
-15.234754429
 30
0.0
 11
84.1787280812
 21
21.4462983191
 31
0.0
  0
LINE
  5
2B3
330
23
100
AcDbEntity
  8
0
  6
Continuous
 62
     7
370
    25
100
AcDbLine
 10
84.1787280812
 20
21.4462983191
 30
0.0
 11
84.1777818556
 21
21.5438041965
 31
0.0
  0
LINE
  5
2B4
330
23
100
AcDbEntity
  8
0
  6
Continuous
 62
     7
370
    25
100
AcDbLine
 10
84.1777818556
 20
21.5438041965
 30
0.0
 11
84.1782549896
 21
26.6428858067
 31
0.0
  0
LINE
  5
2B5
330
23
100
AcDbEntity
  8
0
  6
Continuous
 62
     7
370
    25
100
AcDbLine
 10
84.1782549684
 20
26.6431141082
 30
0.0
 11
79.0793991218
 21
26.6431159243
 31
0.0
  0
LINE
  5
2B6
330
23
100
AcDbEntity
  8
0
  6
Continuous
 62
     7
370
    25
100
AcDbLine
 10
79.0793964252
 20
26.6430987104
 30
0.0
 11
64.0
 21
26.6430987104
 31
0.0
  0
LINE
  5
2B7
330
23
100
AcDbEntity
  8
0
  6
Continuous
 62
     7
370
    25
100
AcDbLine
 10
-64.0
 20
26.6430987104
 30
0.0
 11
-84.1777818556
 21
26.6430987104
 31
0.0
  0
LINE
  5
2B8
330
23
100
AcDbEntity
  8
0
  6
Continuous
 62
     7
370
    25
100
AcDbLine
 10
64.0
 20
25.6424891661
 30
0.0
 11
19.0
 21
25.6424891661
 31
0.0
  0
LINE
  5
2B9
330
23
100
AcDbEntity
  8
0
  6
Continuous
 62
     7
370
    25
100
AcDbLine
 10
3.998627654
 20
-32.6298492488
 30
0.0
 11
3.998627654
 21
-31.43
 31
0.0
  0
LINE
  5
2BA
330
23
100
AcDbEntity
  8
0
  6
Continuous
 62
     7
370
    25
100
AcDbLine
 10
4.0484150443
 20
-29.5799682791
 30
0.0
 11
4.0484150443
 21
-31.43
 31
0.0
  0
LINE
  5
2BB
330
23
100
AcDbEntity
  8
0
  6
Continuous
 62
     7
370
    25
100
AcDbLine
 10
3.998627654
 20
-32.6298492488
 30
0.0
 11
4.1139247684
 21
-32.731840581
 31
0.0
  0
LINE
  5
2BC
330
23
100
AcDbEntity
  8
0
  6
Continuous
 62
     7
370
    25
100
AcDbLine
 10
-19.0
 20
25.6424891661
 30
0.0
 11
-64.0
 21
25.6424891661
 31
0.0
  0
LINE
  5
2BD
330
23
100
AcDbEntity
  8
0
  6
Continuous
 62
     7
370
    25
100
AcDbLine
 10
19.0
 20
26.6430987104
 30
0.0
 11
-19.0
 21
26.6430987104
 31
0.0
  0
LINE
  5
2BE
330
23
100
AcDbEntity
  8
0
  6
Continuous
 62
     7
370
    25
100
AcDbLine
 10
-3.998627654
 20
-32.6297811886
 30
0.0
 11
-3.998627654
 21
-31.43
 31
0.0
  0
LINE
  5
2BF
330
23
100
AcDbEntity
  8
0
  6
Continuous
 62
     7
370
    25
100
AcDbLine
 10
-4.0484150443
 20
-29.5799682791
 30
0.0
 11
-4.0484150443
 21
-31.43
 31
0.0
  0
LINE
  5
2C0
330
23
100
AcDbEntity
  8
0
  6
Continuous
 62
     7
370
    25
100
AcDbLine
 10
-4.1139247684
 20
-32.7318765473
 30
0.0
 11
-3.998627654
 21
-32.6297811886
 31
0.0
  0
LINE
  5
2C1
330
23
100
AcDbEntity
  8
0
  6
Continuous
 62
     7
370
    25
100
AcDbLine
 10
5.4095834279
 20
-29.1320344307
 30
0.0
 11
5.4095834279
 21
-26.632471482
 31
0.0
  0
LINE
  5
2C2
330
23
100
AcDbEntity
  8
0
  6
Continuous
 62
     7
370
    25
100
AcDbLine
 10
5.5373716185
 20
-29.1321408946
 30
0.0
 11
5.4097874266
 21
-29.1321408946
 31
0.0
  0
LINE
  5
2C3
330
23
100
AcDbEntity
  8
0
  6
Continuous
 62
     7
370
    25
100
AcDbLine
 10
-5.4095834279
 20
-26.6316964986
 30
0.0
 11
-5.4095834279
 21
-29.1320341911
 31
0.0
  0
LINE
  5
2C4
330
23
100
AcDbEntity
  8
0
  6
Continuous
 62
     7
370
    25
100
AcDbLine
 10
-5.4095793989
 20
-29.1321408315
 30
0.0
 11
-5.5738122194
 21
-29.1200038977
 31
0.0
  0
LINE
  5
2C5
330
23
100
AcDbEntity
  8
0
  6
Continuous
 62
     7
370
    25
100
AcDbLine
 10
-5.409577821
 20
-29.1321408946
 30
0.0
 11
-5.5373716185
 21
-29.1321408946
 31
0.0
  0
LINE
  5
2C6
330
23
100
AcDbEntity
  8
0
  6
Continuous
 62
     7
370
    25
100
AcDbLine
 10
-4.0484150443
 20
-31.43
 30
0.0
 11
4.0484150443
 21
-31.43
 31
0.0
  0
LINE
  5
2C7
330
23
100
AcDbEntity
  8
0
  6
Continuous
 62
     7
370
    25
100
AcDbLine
 10
84.178696172
 20
21.4462664099
 30
0.0
 11
84.1777818556
 21
21.5438041965
 31
0.0
  0
LINE
  5
2C8
330
23
100
AcDbEntity
  8
0
  6
Continuous
 62
     7
370
    25
100
AcDbLine
 10
84.178696172
 20
21.4462664099
 30
0.0
 11
84.178696172
 21
-15.2345518335
 31
0.0
  0
LINE
  5
2C9
330
23
100
AcDbEntity
  8
0
  6
Continuous
 62
     7
370
    25
100
AcDbLine
 10
-84.178696172
 20
-15.2347483021
 30
0.0
 11
-84.178696172
 21
21.4462664099
 31
0.0
  0
LINE
  5
2CA
330
23
100
AcDbEntity
  8
0
  6
Continuous
 62
     7
370
    25
100
AcDbLine
 10
-84.1777818556
 20
21.5438041965
 30
0.0
 11
-84.178696172
 21
21.4462664099
 31
0.0
  0
LINE
  5
2CB
330
23
100
AcDbEntity
  8
0
  6
Continuous
 62
     7
370
    25
100
AcDbLine
 10
-84.178696172
 20
21.4462664099
 30
0.0
 11
-84.1787280812
 21
21.4462983191
 31
0.0
  0
LINE
  5
2CC
330
23
100
AcDbEntity
  8
0
  6
Continuous
 62
     7
370
    25
100
AcDbLine
 10
84.1787280812
 20
21.4462983191
 30
0.0
 11
84.178696172
 21
21.4462664099
 31
0.0
  0
ARC
  5
2CD
330
23
100
AcDbEntity
  8
0
  6
Continuous
 62
     7
370
    25
100
AcDbCircle
 10
-22.1514814634
 20
18.5504167955
 30
0.0
 40
3.994258126533151
100
AcDbArc
 50
323.2337963566
 51
0.0012394635
  0
ARC
  5
2CE
330
23
100
AcDbEntity
  8
0
  6
Continuous
 62
     7
370
    25
100
AcDbCircle
 10
-22.0571977381
 20
18.5190549108
 30
0.0
 40
3.994308403567408
100
AcDbArc
 50
323.1692467327
 51
0.0010016725
  0
ARC
  5
2CF
330
23
100
AcDbEntity
  8
0
  6
Continuous
 62
     7
370
    25
100
AcDbCircle
 10
22.0571976585
 20
18.519054885
 30
0.0
 40
3.994308324339507
100
AcDbArc
 50
179.9989979585
 51
216.8307535793
  0
ARC
  5
2D0
330
23
100
AcDbEntity
  8
0
  6
Continuous
 62
     7
370
    25
100
AcDbCircle
 10
-22.6501346622
 20
-13.8611865765
 30
0.0
 40
3.994283671022872
100
AcDbArc
 50
359.9989394771
 51
35.003269251
  0
ARC
  5
2D1
330
23
100
AcDbEntity
  8
0
  6
Continuous
 62
     7
370
    25
100
AcDbCircle
 10
-22.5558458931
 20
-13.8314273877
 30
0.0
 40
3.994328904134395
100
AcDbArc
 50
359.9994105371
 51
35.0645406999
  0
ARC
  5
2D2
330
23
100
AcDbEntity
  8
0
  6
Continuous
 62
     7
370
    25
100
AcDbCircle
 10
22.5558459728
 20
-13.8314274129
 30
0.0
 40
3.994328983855982
100
AcDbArc
 50
144.9354595969
 51
180.0005891016
  0
ARC
  5
2D3
330
23
100
AcDbEntity
  8
0
  6
Continuous
 62
     7
370
    25
100
AcDbCircle
 10
-16.658857843
 20
-19.300103738
 30
0.0
 40
1.996993153102275
100
AcDbArc
 50
179.9962556698
 51
232.284371717
  0
ARC
  5
2D4
330
23
100
AcDbEntity
  8
0
  6
Continuous
 62
     7
370
    25
100
AcDbCircle
 10
-16.5644694787
 20
-19.253811257
 30
0.0
 40
1.997047512043644
100
AcDbArc
 50
179.9976088949
 51
232.2229790147
  0
ARC
  5
2D5
330
23
100
AcDbEntity
  8
0
  6
Continuous
 62
     7
370
    25
100
AcDbCircle
 10
16.6535105457
 20
-19.2974794576
 30
0.0
 40
2.002341999054764
100
AcDbArc
 50
307.7907304876
 51
359.928642145
  0
ARC
  5
2D6
330
23
100
AcDbEntity
  8
0
  6
Continuous
 62
     7
370
    25
100
AcDbCircle
 10
16.564469489
 20
-19.2538112614
 30
0.0
 40
1.997047502303367
100
AcDbArc
 50
307.7770212948
 51
0.0026832996
  0
ARC
  5
2D7
330
23
100
AcDbEntity
  8
0
  6
Continuous
 62
     7
370
    25
100
AcDbCircle
 10
53.8
 20
9.2022821417
 30
0.0
 40
0.7674550649131007
100
AcDbArc
 50
0.0
 51
180.0
  0
ARC
  5
2D8
330
23
100
AcDbEntity
  8
0
  6
Continuous
 62
     7
370
    25
100
AcDbCircle
 10
53.8
 20
6.7022821417
 30
0.0
 40
0.7674550649131007
100
AcDbArc
 50
0.0
 51
180.0
  0
ARC
  5
2D9
330
23
100
AcDbEntity
  8
0
  6
Continuous
 62
     7
370
    25
100
AcDbCircle
 10
58.0
 20
-6.0
 30
0.0
 40
3.017455064910912
100
AcDbArc
 50
0.0
 51
180.0
  0
ARC
  5
2DA
330
23
100
AcDbEntity
  8
0
  6
Continuous
 62
     7
370
    25
100
AcDbCircle
 10
75.0
 20
19.0
 30
0.0
 40
2.131705621081665
100
AcDbArc
 50
360.0
 51
180.0
  0
ARC
  5
2DB
330
23
100
AcDbEntity
  8
0
  6
Continuous
 62
     7
370
    25
100
AcDbCircle
 10
78.838425236
 20
-10.8017499071
 30
0.0
 40
3.999185775034596
100
AcDbArc
 50
269.9970628381
 51
0.0029371619
  0
ARC
  5
2DC
330
23
100
AcDbEntity
  8
0
  6
Continuous
 62
     7
370
    25
100
AcDbCircle
 10
0.0
 20
1.0
 30
0.0
 40
30.99862765400478
100
AcDbArc
 50
281.1604372805
 51
295.3741441913
  0
ARC
  5
2DD
330
23
100
AcDbEntity
  8
0
  6
Continuous
 62
     7
370
    25
100
AcDbCircle
 10
0.0
 20
1.0
 30
0.0
 40
28.25058098718743
100
AcDbArc
 50
281.4988526639
 51
308.334234337
  0
ARC
  5
2DE
330
23
100
AcDbEntity
  8
0
  6
Continuous
 62
     7
370
    25
100
AcDbCircle
 10
-0.0000003772
 20
2.0000000688
 30
0.0
 40
23.65722371483493
100
AcDbArc
 50
324.9977916595
 51
359.9999998334
  0
ARC
  5
2DF
330
23
100
AcDbEntity
  8
0
  6
Continuous
 62
     7
370
    25
100
AcDbCircle
 10
0.0
 20
2.0
 30
0.0
 40
23.65722333766972
100
AcDbArc
 50
0.0
 51
36.7649641799
  0
ARC
  5
2E0
330
23
100
AcDbEntity
  8
0
  6
Continuous
 62
     7
370
    25
100
AcDbCircle
 10
78.838425236
 20
21.1865089687
 30
0.0
 40
3.999185775034593
100
AcDbArc
 50
359.9970628381
 51
90.0029371619
  0
ARC
  5
2E1
330
23
100
AcDbEntity
  8
0
  6
Continuous
 62
     7
370
    25
100
AcDbCircle
 10
73.5
 20
-2.0
 30
0.0
 40
2.099999999998005
100
AcDbArc
 50
90.0
 51
270.0
  0
ARC
  5
2E2
330
23
100
AcDbEntity
  8
0
  6
Continuous
 62
     7
370
    25
100
AcDbCircle
 10
-0.0000000001
 20
1.0000000001
 30
0.0
 40
30.99862765411275
100
AcDbArc
 50
306.4829892791
 51
308.2360301338
  0
ARC
  5
2E3
330
23
100
AcDbEntity
  8
0
  6
Continuous
 62
     7
370
    25
100
AcDbCircle
 10
43.2676892451
 20
-53.8775089647
 30
0.0
 40
38.88437666849394
100
AcDbArc
 50
89.9682402915
 51
128.2677898423
  0
ARC
  5
2E4
330
23
100
AcDbEntity
  8
0
  6
Continuous
 62
     7
370
    25
100
AcDbCircle
 10
43.8068770655
 20
-54.4007684299
 30
0.0
 40
42.47156354971072
100
AcDbArc
 50
127.7793703077
 51
128.334459303
  0
ARC
  5
2E5
330
23
100
AcDbEntity
  8
0
  6
Continuous
 62
     7
370
    25
100
AcDbCircle
 10
0.0
 20
1.0
 30
0.0
 40
28.15624698458517
100
AcDbArc
 50
281.0766223555
 51
308.334235072
  0
ARC
  5
2E6
330
23
100
AcDbEntity
  8
0
  6
Continuous
 62
     7
370
    25
100
AcDbCircle
 10
-43.8069844172
 20
-54.4009055527
 30
0.0
 40
42.47173769429011
100
AcDbArc
 50
51.6655419883
 51
52.2206285323
  0
ARC
  5
2E7
330
23
100
AcDbEntity
  8
0
  6
Continuous
 62
     7
370
    25
100
AcDbCircle
 10
-75.0
 20
-1.0
 30
0.0
 40
2.100000000000506
100
AcDbArc
 50
360.0
 51
180.0
  0
ARC
  5
2E8
330
23
100
AcDbEntity
  8
0
  6
Continuous
 62
     7
370
    25
100
AcDbCircle
 10
-75.0
 20
-7.6
 30
0.0
 40
3.799999999998536
100
AcDbArc
 50
123.5477382683
 51
56.4522617317
  0
ARC
  5
2E9
330
23
100
AcDbEntity
  8
0
  6
Continuous
 62
     7
370
    25
100
AcDbCircle
 10
0.0
 20
1.0
 30
0.0
 40
28.25058098718917
100
AcDbArc
 50
231.665765663
 51
258.5011473361
  0
ARC
  5
2EA
330
23
100
AcDbEntity
  8
0
  6
Continuous
 62
     7
370
    25
100
AcDbCircle
 10
0.0
 20
1.0
 30
0.0
 40
30.99862765403137
100
AcDbArc
 50
244.6258558087
 51
258.8395627194
  0
ARC
  5
2EB
330
23
100
AcDbEntity
  8
0
  6
Continuous
 62
     7
370
    25
100
AcDbCircle
 10
0.0
 20
1.0
 30
0.0
 40
30.99862765406768
100
AcDbArc
 50
231.7639698662
 51
233.5170107209
  0
ARC
  5
2EC
330
23
100
AcDbEntity
  8
0
  6
Continuous
 62
     7
370
    25
100
AcDbCircle
 10
-78.8384287583
 20
-10.8017534294
 30
0.0
 40
3.999182252930477
100
AcDbArc
 50
179.9970123721
 51
270.0029876279
  0
ARC
  5
2ED
330
23
100
AcDbEntity
  8
0
  6
Continuous
 62
     7
370
    25
100
AcDbCircle
 10
-78.8383923135
 20
21.1864760462
 30
0.0
 40
3.999218695978682
100
AcDbArc
 50
89.9975345344
 51
180.0024654656
  0
ARC
  5
2EE
330
23
100
AcDbEntity
  8
0
  6
Continuous
 62
     7
370
    25
100
AcDbCircle
 10
0.0
 20
2.0
 30
0.0
 40
23.65722333766968
100
AcDbArc
 50
143.2350358201
 51
215.0022087281
  0
ARC
  5
2EF
330
23
100
AcDbEntity
  8
0
  6
Continuous
 62
     7
370
    25
100
AcDbCircle
 10
-43.2884465774
 20
-53.9373916639
 30
0.0
 40
38.9442534020865
100
AcDbArc
 50
51.7627977068
 51
90.0011721593
  0
ARC
  5
2F0
330
23
100
AcDbEntity
  8
0
  6
Continuous
 62
     7
370
    25
100
AcDbCircle
 10
0.0
 20
1.0
 30
0.0
 40
28.15624698458572
100
AcDbArc
 50
231.6657646967
 51
258.9230434938
  0
ARC
  5
2F1
330
23
100
AcDbEntity
  8
0
  6
Continuous
 62
     7
370
    25
100
AcDbCircle
 10
78.8384268465
 20
21.1865105792
 30
0.0
 40
4.030603281386492
100
AcDbArc
 50
359.9970628381
 51
90.0029371619
  0
ARC
  5
2F2
330
23
100
AcDbEntity
  8
0
  6
Continuous
 62
     7
370
    25
100
AcDbCircle
 10
78.8698539231
 20
-10.8331742928
 30
0.0
 40
3.999176205083313
100
AcDbArc
 50
271.2800835713
 51
0.0030126552
  0
ARC
  5
2F3
330
23
100
AcDbEntity
  8
0
  6
Continuous
 62
     7
370
    25
100
AcDbCircle
 10
0.0
 20
2.0
 30
0.0
 40
23.56288933506766
100
AcDbArc
 50
324.9358844583
 51
36.8302088864
  0
ARC
  5
2F4
330
23
100
AcDbEntity
  8
0
  6
Continuous
 62
     7
370
    25
100
AcDbCircle
 10
0.0
 20
2.0
 30
0.0
 40
23.56288933506762
100
AcDbArc
 50
143.1697911136
 51
215.0641155417
  0
ARC
  5
2F5
330
23
100
AcDbEntity
  8
0
  6
Continuous
 62
     7
370
    25
100
AcDbCircle
 10
-78.8698539258
 20
-10.8331742956
 30
0.0
 40
3.999176202324038
100
AcDbArc
 50
179.9969873051
 51
268.7199202876
  0
ARC
  5
2F6
330
23
100
AcDbEntity
  8
0
  6
Continuous
 62
     7
370
    25
100
AcDbCircle
 10
-78.8384268465
 20
21.1865105792
 30
0.0
 40
4.03060328138662
100
AcDbArc
 50
89.9970628381
 51
180.0029371619
  0
ARC
  5
2F7
330
23
100
AcDbEntity
  8
0
  6
Continuous
 62
     7
370
    25
100
AcDbCircle
 10
53.8
 20
9.2022821417
 30
0.0
 40
0.7499999999992966
100
AcDbArc
 50
180.0
 51
0.0
  0
ARC
  5
2F8
330
23
100
AcDbEntity
  8
0
  6
Continuous
 62
     7
370
    25
100
AcDbCircle
 10
53.8
 20
6.7022821417
 30
0.0
 40
0.7499999999992966
100
AcDbArc
 50
180.0
 51
0.0
  0
ARC
  5
2F9
330
23
100
AcDbEntity
  8
0
  6
Continuous
 62
     7
370
    25
100
AcDbCircle
 10
58.0
 20
-6.0
 30
0.0
 40
2.999999999998174
100
AcDbArc
 50
180.0
 51
0.0
  0
ARC
  5
2FA
330
23
100
AcDbEntity
  8
0
  6
Continuous
 62
     7
370
    25
100
AcDbCircle
 10
-81.5359365185
 20
36.5071538615
 30
0.0
 40
51.80896205597323
100
AcDbArc
 50
267.0760989463
 51
271.1258247305
  0
ARC
  5
2FB
330
23
100
AcDbEntity
  8
0
  6
Continuous
 62
     7
370
    25
100
AcDbCircle
 10
81.5355671939
 20
36.532259694
 30
0.0
 40
51.83405627795278
100
AcDbArc
 50
268.8751010646
 51
272.9228756062
  0
ARC
  5
2FC
330
23
100
AcDbEntity
  8
0
  6
Continuous
 62
     7
370
    25
100
AcDbCircle
 10
43.2832008187
 20
-53.922196312
 30
0.0
 40
38.6944508364879
100
AcDbArc
 50
101.8196329118
 51
128.2415872138
  0
ARC
  5
2FD
330
23
100
AcDbEntity
  8
0
  6
Continuous
 62
     7
370
    25
100
AcDbCircle
 10
43.2582602175
 20
-53.8485554263
 30
0.0
 40
38.69979125037614
100
AcDbArc
 50
101.8031445131
 51
128.2620524807
  0
ARC
  5
2FE
330
23
100
AcDbEntity
  8
0
  6
Continuous
 62
     7
370
    25
100
AcDbCircle
 10
-43.2831444459
 20
-53.9220755787
 30
0.0
 40
38.69432111809059
100
AcDbArc
 50
51.7583676885
 51
78.1801131995
  0
ARC
  5
2FF
330
23
100
AcDbEntity
  8
0
  6
Continuous
 62
     7
370
    25
100
AcDbCircle
 10
-43.2580992257
 20
-53.8482106678
 30
0.0
 40
38.69942085504452
100
AcDbArc
 50
51.7378185836
 51
78.1968239938
  0
ARC
  5
300
330
23
100
AcDbEntity
  8
0
  6
Continuous
 62
     7
370
    25
100
AcDbCircle
 10
0.0
 20
1.0
 30
0.0
 40
31.23324840673732
100
AcDbArc
 50
281.1296950359
 51
308.2403004351
  0
ARC
  5
301
330
23
100
AcDbEntity
  8
0
  6
Continuous
 62
     7
370
    25
100
AcDbCircle
 10
0.0
 20
1.0
 30
0.0
 40
31.23324840673714
100
AcDbArc
 50
231.7596995661
 51
258.8875191361
  0
ARC
  5
302
330
23
100
AcDbEntity
  8
0
  6
Continuous
 62
     7
370
    25
100
AcDbCircle
 10
-87.4004904489
 20
28.5974941743
 30
0.0
 40
0.5995095640946384
100
AcDbArc
 50
89.9880588576
 51
180.0119411424
  0
ARC
  5
303
330
23
100
AcDbEntity
  8
0
  6
Continuous
 62
     7
370
    25
100
AcDbCircle
 10
87.4004904489
 20
28.5974941743
 30
0.0
 40
0.5995095640946279
100
AcDbArc
 50
359.9880588576
 51
90.0119411424
  0
ARC
  5
304
330
23
100
AcDbEntity
  8
0
  6
Continuous
 62
     7
370
    25
100
AcDbCircle
 10
86.8012953508
 20
-16.7785188236
 30
0.0
 40
1.198704928025436
100
AcDbArc
 50
269.9907359206
 51
0.0390782679
  0
ARC
  5
305
330
23
100
AcDbEntity
  8
0
  6
Continuous
 62
     7
370
    25
100
AcDbCircle
 10
-86.8014438878
 20
-16.7786728008
 30
0.0
 40
1.198556505956732
100
AcDbArc
 50
179.9535561675
 51
270.0163659799
  0
ARC
  5
306
330
23
100
AcDbEntity
  8
0
  6
Continuous
 62
     7
370
    25
100
AcDbCircle
 10
-35.7212808131
 20
-15.0429534789
 30
0.0
 40
0.998853561085571
100
AcDbArc
 50
259.4429618613
 51
292.3086627708
  0
ARC
  5
307
330
23
100
AcDbEntity
  8
0
  6
Continuous
 62
     7
370
    25
100
AcDbCircle
 10
35.7213873631
 20
-15.042924196
 30
0.0
 40
0.9988636218269215
100
AcDbArc
 50
247.6915704135
 51
280.5967868581
  0
ARC
  5
308
330
23
100
AcDbEntity
  8
0
  6
Continuous
 62
     7
370
    25
100
AcDbCircle
 10
0.0
 20
1.0
 30
0.0
 40
31.15463673790194
100
AcDbArc
 50
231.7372893891
 51
258.8570248936
  0
ARC
  5
309
330
23
100
AcDbEntity
  8
0
  6
Continuous
 62
     7
370
    25
100
AcDbCircle
 10
0.0
 20
1.0
 30
0.0
 40
31.15463673790256
100
AcDbArc
 50
281.1564394839
 51
308.2627106109
  0
ARC
  5
30A
330
23
100
AcDbEntity
  8
0
  6
Continuous
 62
     7
370
    25
100
AcDbCircle
 10
0.0
 20
2.0
 30
0.0
 40
7.978825430020278
100
AcDbArc
 50
0.0
 51
180.0
  0
VIEWPORT
  5
352
330
23
100
AcDbEntity
  8
0
100
AcDbViewport
 10
0.0
 20
0.0
 30
0.0
 40
205.6
 41
156.0
 68
     1
 69
     1
 12
0.0000000575
 22
-1.8340050804
 13
0.0
 23
0.0
 14
10.0
 24
10.0
 15
10.0
 25
10.0
 16
0.0
 26
0.0
 36
1.0
 17
0.0
 27
0.0
 37
0.0
 42
50.0
 43
0.0
 44
0.0
 45
136.2116736723
 50
0.0
 51
0.0
 72
   100
 90
   557152
  1

281
     0
 71
     1
 74
     0
110
0.0
120
0.0
130
0.0
111
1.0
121
0.0
131
0.0
112
0.0
122
1.0
132
0.0
 79
     0
146
0.0
  0
ENDBLK
  5
25
330
23
100
AcDbEntity
  8
0
100
AcDbBlockEnd
  0
BLOCK
  5
30D
330
30B
100
AcDbEntity
  8
0
100
AcDbBlockBegin
  2
*Paper_Space1
 70
     0
 10
0.0
 20
0.0
 30
0.0
  3
*Paper_Space1
  1

  0
LWPOLYLINE
  5
30F
330
30B
100
AcDbEntity
  8
0
  6
Continuous
 62
     7
370
    25
100
AcDbPolyline
 90
       52
 70
   128
 43
0.0
 10
-5.8611125287
 20
27.6701254779
 10
-7.1883583229
 20
26.4370778559
 10
-8.5727244246
 20
24.9874220061
 10
-9.6839786243
 20
23.6913985379
 10
-10.6068422294
 20
22.5081453352
 10
-11.4773225544
 20
21.2871661364
 10
-12.3022391838
 20
20.01953774
 10
-13.0811814884
 20
18.7031621682
 10
-13.7594500039
 20
17.4372913544
 10
-14.3738561687
 20
16.1675776162
 10
-14.8482123221
 20
15.0860544793
 10
-15.330968866
 20
13.8717352243
 10
-15.8487227704
 20
12.401400937
 10
-16.3623175675
 20
10.6857611684
 10
-16.8192163323
 20
8.7981790512
 10
-17.1787705612
 20
6.8554302828
 10
-17.4212128733
 20
4.9561561235
 10
-17.5507467715
 20
3.2290627654
 10
-17.5917131731
 20
1.832055076
 10
-17.5864620744
 20
0.8554910189
 10
-17.5648695629
 20
0.1105094929
 10
-17.519942764
 20
-0.6920786113
 10
-17.4360483563
 20
-1.7231021664
 10
-17.2468085051
 20
-3.2946511836
 10
-16.9128367347
 20
-5.2188505851
 10
-16.4048555016
 20
-7.34894988
 10
-15.7339116632
 20
-9.5147264523
 10
-14.8588131336
 20
-11.7674894916
 10
-13.7789882864
 20
-14.0338554564
 10
-11.8430255638
 20
-17.2719033937
 10
-9.6650276775
 20
-20.1472284981
 10
-8.1583003398
 20
-21.8109275022
 10
-6.6788378541
 20
-23.2461879382
 10
-5.3179052646
 20
-24.4213311076
 10
-4.1210779425
 20
-25.3554152853
 10
-3.1199659331
 20
-26.0729135065
 10
-2.2621005331
 20
-26.6451589131
 10
-1.2590040854
 20
-27.2676829179
 10
-0.0752226686
 20
-27.9415635378
 10
1.2922568075
 20
-28.643301181
 10
2.4380182911
 20
-29.1712958619
 10
3.754373872
 20
-29.7137771495
 10
5.3641673383
 20
-30.2880084124
 10
7.2531616098
 20
-30.8443040487
 10
10.1409335345
 20
-31.4678973613
 10
13.3213863786
 20
-31.8779803791
 10
16.6794698101
 20
-32.093870852
 10
20.1367310268
 20
-32.2590762001
 10
23.6662227625
 20
-32.442330417
 10
27.3012655278
 20
-32.6396351235
 10
31.1502655369
 20
-32.8463481006
 10
31.4999163729
 20
-32.8650429993
  0
LWPOLYLINE
  5
311
330
30B
100
AcDbEntity
  8
0
  6
Continuous
 62
     7
370
    25
100
AcDbPolyline
 90
       17
 70
   128
 43
0.0
 10
18.4480767228
 20
-17.1690180063
 10
18.4471101902
 20
-17.1689839917
 10
18.5776883138
 20
-17.1803428533
 10
18.9289948853
 20
-17.2059024193
 10
19.4880963265
 20
-17.2438317636
 10
20.0154159708
 20
-17.2762606429
 10
20.5709344259
 20
-17.3066588377
 10
21.1462010363
 20
-17.3349361609
 10
21.7483455798
 20
-17.3642238391
 10
22.458771633
 20
-17.4013003061
 10
23.3150696554
 20
-17.4464495045
 10
24.3010031599
 20
-17.497032432
 10
25.1801796929
 20
-17.541436127
 10
25.5590813905
 20
-17.560484833
 10
25.899329531
 20
-17.5774910118
 10
26.4681427732
 20
-17.6054158551
 10
26.653484353
 20
-17.6140000977
  0
LWPOLYLINE
  5
312
330
30B
100
AcDbEntity
  8
0
  6
Continuous
 62
     7
370
    25
100
AcDbPolyline
 90
        3
 70
   128
 43
0.0
 10
-5.489559481
 20
27.8284741523
 10
-5.6930362941
 20
27.7855802341
 10
-5.8693159725
 20
27.6763291601
  0
LWPOLYLINE
  5
313
330
30B
100
AcDbEntity
  8
0
  6
Continuous
 62
     7
370
    25
100
AcDbPolyline
 90
        3
 70
   128
 43
0.0
 10
33.6999966878
 20
-17.9772290827
 10
32.9800172058
 20
-17.941869444
 10
32.893879801
 20
-17.9374798679
  0
LWPOLYLINE
  5
314
330
30B
100
AcDbEntity
  8
0
  6
Continuous
 62
     7
370
    25
100
AcDbPolyline
 90
        3
 70
   128
 43
0.0
 10
32.2484131824
 20
28.5466787123
 10
31.8220454379
 20
28.5398730464
 10
31.4576975665
 20
28.5340047521
  0
LWPOLYLINE
  5
315
330
30B
100
AcDbEntity
  8
0
  6
Continuous
 62
     7
370
    25
100
AcDbPolyline
 90
       31
 70
   128
 43
0.0
 10
33.7
 20
-16.7777012537
 10
32.9720127504
 20
-16.7420149589
 10
32.6101644985
 20
-16.705237374
 10
32.5283367931
 20
-16.6667187047
 10
32.4673842176
 20
-16.5997367545
 10
32.3930848289
 20
-16.4357726958
 10
32.3493203901
 20
-16.0387786284
 10
32.3430657699
 20
-15.6264264823
 10
32.3411131637
 20
-14.9878956134
 10
32.3370310047
 20
-14.3589888318
 10
32.3309204101
 20
-13.5367686028
 10
32.3241684879
 20
-12.6503712774
 10
32.3201528236
 20
-12.0856422488
 10
32.3138224888
 20
-11.112354979
 10
32.307906087
 20
-10.1870897308
 10
32.3024036179
 20
-9.3098465041
 10
32.2973150818
 20
-8.4806252991
 10
32.2926404785
 20
-7.6994261157
 10
32.2883798081
 20
-6.966248954
 10
32.2845330706
 20
-6.2810938138
 10
32.2742879754
 20
-4.3293957528
 10
32.2650789711
 20
-2.3844305953
 10
32.2569060578
 20
-0.4461983412
 10
32.2497692355
 20
1.4853010094
 10
32.2436685042
 20
3.4100674566
 10
32.2386038638
 20
5.3281010003
 10
32.2308367053
 20
9.692999924
 10
32.2279340875
 20
14.197307157
 10
32.2298960104
 20
18.8410226994
 10
32.2367224739
 20
23.6241465511
 10
32.2484134781
 20
28.5466787121
  0
LWPOLYLINE
  5
31E
330
30B
100
AcDbEntity
  8
0
  6
Continuous
 62
     7
370
    25
100
AcDbPolyline
 90
        3
 70
   128
 43
0.0
 10
31.4576977957
 20
28.5340047522
 10
30.1276568761
 20
28.4912048924
 10
28.8242942536
 20
28.4493511414
  0
LWPOLYLINE
  5
335
330
30B
100
AcDbEntity
  8
0
  6
Continuous
 62
     8
370
    25
100
AcDbPolyline
 90
       19
 70
   128
 43
0.0
 10
32.893879801
 20
-17.9374798679
 10
32.7786723267
 20
-17.9316088763
 10
32.6351526342
 20
-17.9185463013
 10
32.3834674534
 20
-17.8679912595
 10
32.2216802516
 20
-17.807143193
 10
31.9974926589
 20
-17.6677928589
 10
31.7774902353
 20
-17.4227296908
 10
31.6833307692
 20
-17.2677587584
 10
31.5092283966
 20
-16.7183349578
 10
31.4762321937
 20
-16.2934145341
 10
31.4734533635
 20
-16.0023032911
 10
31.4742270345
 20
-15.7398486889
 10
31.4760262511
 20
-15.4945328015
 10
31.4769786513
 20
-15.2555558824
 10
31.4769662305
 20
-15.0159227624
 10
31.4738754515
 20
-12.1121725345
 10
31.4673558268
 20
-6.3056931225
 10
31.4559518516
 20
5.3078806676
 10
31.4576975665
 20
28.5340047521
  0
LWPOLYLINE
  5
336
330
30B
100
AcDbEntity
  8
0
  6
Continuous
 62
     8
370
    25
100
AcDbPolyline
 90
       24
 70
   128
 43
0.0
 10
28.8244552642
 20
28.449348135
 10
28.7539771272
 20
23.9822882489
 10
28.7086436156
 20
19.4864083054
 10
28.6902933379
 20
15.1049939704
 10
28.6970455908
 20
10.7904198951
 10
28.7159255415
 20
7.9306755429
 10
28.7508250922
 20
4.8041914465
 10
28.8065180966
 20
1.287025493
 10
28.8901293928
 20
-2.6223834442
 10
29.0001902313
 20
-6.6384005019
 10
29.1009283519
 20
-9.6943379954
 10
29.2051613949
 20
-12.4511018072
 10
29.2571173481
 20
-13.7211220401
 10
29.2996437107
 20
-14.8419816397
 10
29.3824147374
 20
-15.7858284241
 10
29.5754006066
 20
-16.4222929708
 10
29.8561709789
 20
-16.895024869
 10
30.1564762485
 20
-17.2238423428
 10
30.434314352
 20
-17.4423228691
 10
30.85951349
 20
-17.6701883375
 10
31.107964209
 20
-17.7594821477
 10
31.3197031636
 20
-17.8147547823
 10
31.635434126
 20
-17.8669671202
 10
32.1771890181
 20
-17.9003229515
  0
LWPOLYLINE
  5
337
330
30B
100
AcDbEntity
  8
0
  6
Continuous
 62
     8
370
    25
100
AcDbPolyline
 90
       14
 70
   128
 43
0.0
 10
-5.8668316371
 20
27.6762817433
 10
-5.8692926166
 20
27.676333594
 10
-5.6213719195
 20
27.6706732477
 10
-4.8790039521
 20
27.6629668214
 10
-3.6332193879
 20
27.665451546
 10
-1.8770894852
 20
27.682593164
 10
0.3671626148
 20
27.71277598
 10
3.0788097056
 20
27.7589924033
 10
6.2521593824
 20
27.8229302548
 10
9.8918684288
 20
27.9065824849
 10
13.9992693613
 20
28.0111789557
 10
18.5433731128
 20
28.1368696621
 10
23.4910940939
 20
28.283149764
 10
28.8244552581
 20
28.4493481348
  0
LINE
  5
33B
330
30B
100
AcDbEntity
  8
0
  6
Continuous
 62
     7
370
    25
100
AcDbLine
 10
33.7
 20
29.1970037254
 30
0.0
 11
33.7
 21
-17.9772292579
 31
0.0
  0
LINE
  5
33C
330
30B
100
AcDbEntity
  8
0
  6
Continuous
 62
     7
370
    25
100
AcDbLine
 10
33.7
 20
28.5973692292
 30
0.0
 11
32.2484134781
 21
28.5466787121
 31
0.0
  0
LINE
  5
33D
330
30B
100
AcDbEntity
  8
0
  6
Continuous
 62
     7
370
    25
100
AcDbLine
 10
33.7
 20
29.1970037254
 30
0.0
 11
-5.4885156
 21
27.8285106054
 31
0.0
  0
LINE
  5
33E
330
30B
100
AcDbEntity
  8
0
  6
Continuous
 62
     7
370
    25
100
AcDbLine
 10
33.7
 20
-32.7318765473
 30
0.0
 11
31.5
 21
-32.6297811886
 31
0.0
  0
LINE
  5
33F
330
30B
100
AcDbEntity
  8
0
  6
Continuous
 62
     7
370
    25
100
AcDbLine
 10
31.5
 20
-32.6297811886
 30
0.0
 11
31.5
 21
-32.8650138992
 31
0.0
  0
LINE
  5
340
330
30B
100
AcDbEntity
  8
0
  6
Continuous
 62
     7
370
    25
100
AcDbLine
 10
33.7
 20
-18.1098124803
 30
0.0
 11
33.7
 21
-32.7318765473
 31
0.0
  0
LINE
  5
341
330
30B
100
AcDbEntity
  8
0
  6
Continuous
 62
     7
370
    25
100
AcDbLine
 10
34.0
 20
25.1856947385
 30
0.0
 11
33.7
 21
25.1909312579
 31
0.0
  0
LINE
  5
342
330
30B
100
AcDbEntity
  8
0
  6
Continuous
 62
     7
370
    25
100
AcDbLine
 10
33.7
 20
-14.8061721963
 30
0.0
 11
34.0
 21
-14.8009356769
 31
0.0
  0
LINE
  5
343
330
30B
100
AcDbEntity
  8
0
  6
Continuous
 62
     7
370
    25
100
AcDbLine
 10
33.7
 20
-14.9774159362
 30
0.0
 11
34.0
 21
-14.99313827
 31
0.0
  0
LINE
  5
344
330
30B
100
AcDbEntity
  8
0
  6
Continuous
 62
     7
370
    25
100
AcDbLine
 10
34.0
 20
-23.9239327307
 30
0.0
 11
33.7
 21
-23.9070849814
 31
0.0
  0
LINE
  5
345
330
30B
100
AcDbEntity
  8
0
  6
Continuous
 62
     7
370
    25
100
AcDbLine
 10
34.0
 20
-26.3467875173
 30
0.0
 11
33.7
 21
-26.3357898366
 31
0.0
  0
LINE
  5
346
330
30B
100
AcDbEntity
  8
0
  6
Continuous
 62
     7
370
    25
100
AcDbLine
 10
34.0
 20
-27.008151792
 30
0.0
 11
33.7
 21
-26.9967390875
 31
0.0
  0
LINE
  5
347
330
30B
100
AcDbEntity
  8
0
  6
Continuous
 62
     7
370
    25
100
AcDbLine
 10
33.7000015531
 20
-29.3963853505
 30
0.0
 11
34.0
 21
-29.4124138541
 31
0.0
  0
LINE
  5
348
330
30B
100
AcDbEntity
  8
0
  6
Continuous
 62
     7
370
    25
100
AcDbLine
 10
34.0
 20
25.1856947385
 30
0.0
 11
34.0
 21
-29.4124138541
 31
0.0
  0
LINE
  5
349
330
30B
100
AcDbEntity
  8
0
  6
Continuous
 62
     8
370
    25
100
AcDbLine
 10
33.7
 20
21.1863039578
 30
0.0
 11
34.0
 21
21.1863039578
 31
0.0
  0
LINE
  5
34A
330
30B
100
AcDbEntity
  8
0
  6
Continuous
 62
     8
370
    25
100
AcDbLine
 10
34.0
 20
-10.8015448962
 30
0.0
 11
33.7
 21
-10.8067814157
 31
0.0
  0
LINE
  5
34B
330
30B
100
AcDbEntity
  8
0
  6
Continuous
 62
     8
370
    25
100
AcDbLine
 10
33.7
 20
-23.3345815214
 30
0.0
 11
34.0
 21
-23.3484255751
 31
0.0
  0
ARC
  5
34C
330
30B
100
AcDbEntity
  8
0
  6
Continuous
 62
     7
370
    25
100
AcDbCircle
 10
14.2752578673
 20
-288.4242193266
 30
0.0
 40
271.1147495270268
100
AcDbArc
 50
86.2139390054
 51
87.7671472346
  0
ARC
  5
34D
330
30B
100
AcDbEntity
  8
0
  6
Continuous
 62
     7
370
    25
100
AcDbCircle
 10
36.5499158098
 20
28.8464959644
 30
0.0
 40
4.311938243930024
100
AcDbArc
 50
176.0128985931
 51
183.9871013982
  0
ARC
  5
34E
330
30B
100
AcDbEntity
  8
0
  6
Continuous
 62
     7
370
    25
100
AcDbCircle
 10
31.9793472654
 20
28.6192515827
 30
0.0
 40
0.5285690809735152
100
AcDbArc
 50
103.825817924
 51
189.281112882
  0
ARC
  5
34F
330
30B
100
AcDbEntity
  8
0
  6
Continuous
 62
     7
370
    25
100
AcDbCircle
 10
29.3478527944
 20
28.5247327625
 30
0.0
 40
0.5289574108403976
100
AcDbArc
 50
102.5747978392
 51
188.1931043599
  0
VIEWPORT
  5
354
330
30B
100
AcDbEntity
  8
0
100
AcDbViewport
 10
0.0
 20
0.0
 30
0.0
 40
205.6
 41
156.0
 68
     1
 69
     1
 12
0.0000000575
 22
-1.8340050804
 13
0.0
 23
0.0
 14
10.0
 24
10.0
 15
10.0
 25
10.0
 16
0.0
 26
0.0
 36
1.0
 17
0.0
 27
0.0
 37
0.0
 42
50.0
 43
0.0
 44
0.0
 45
136.2116736723
 50
0.0
 51
0.0
 72
   100
 90
   557152
  1

281
     0
 71
     1
 74
     0
110
0.0
120
0.0
130
0.0
111
1.0
121
0.0
131
0.0
112
0.0
122
1.0
132
0.0
 79
     0
146
0.0
  0
ENDBLK
  5
30E
330
30B
100
AcDbEntity
  8
0
100
AcDbBlockEnd
  0
ENDSEC
  0
SECTION
  2
ENTITIES
  0
LWPOLYLINE
  5
73
330
1F
100
AcDbEntity
  8
0
  6
Continuous
 62
     7
370
    25
100
AcDbPolyline
 90
       25
 70
   128
 43
0.0
 10
-85.0000166665
 20
28.4494036236
 10
-79.1862822789
 20
28.2832784775
 10
-73.0479517482
 20
28.1372107102
 10
-66.5961366401
 20
28.0115922739
 10
-59.8746854677
 20
27.9068115958
 10
-52.8950876717
 20
27.8224688544
 10
-45.7013822797
 20
27.7580630282
 10
-38.368349664
 20
27.7122826578
 10
-30.9020172335
 20
27.6823974408
 10
-23.3036236831
 20
27.6655061761
 10
-15.5731418153
 20
27.6625714068
 10
-7.7359836627
 20
27.6712313403
 10
0.079357364
 20
27.676333594
 10
7.8578147162
 20
27.6706732477
 10
15.6028860969
 20
27.6629668214
 10
23.3161983355
 20
27.665451546
 10
30.9880018666
 20
27.682593164
 10
38.5032369399
 20
27.71277598
 10
45.818794864
 20
27.7589924033
 10
52.9386231216
 20
27.8229302548
 10
59.8611066059
 20
27.9065824849
 10
66.5774547383
 20
28.0111789557
 10
73.0324939029
 20
28.1368696621
 10
79.1805517933
 20
28.283149764
 10
85.0000095115
 20
28.4493481348
  0
LWPOLYLINE
  5
74
330
1F
100
AcDbEntity
  8
0
  6
Continuous
 62
     7
370
    25
100
AcDbPolyline
 90
       26
 70
   128
 43
0.0
 10
85.0000095178
 20
28.449348135
 10
85.000066205
 20
23.9822882489
 10
85.0001008335
 20
19.4864083054
 10
85.0001213933
 20
15.1049939704
 10
85.0001357807
 20
10.7904198951
 10
85.000145168
 20
7.9306755429
 10
85.00015712
 20
4.8041914465
 10
85.0001732987
 20
1.287025493
 10
85.0001934288
 20
-2.6223834442
 10
85.0002163292
 20
-6.6384005019
 10
85.0002357499
 20
-9.6943379954
 10
85.0002556148
 20
-12.4511018072
 10
85.000266008
 20
-13.7211220401
 10
85.0002762886
 20
-14.8419816397
 10
85.0002863776
 20
-15.7858284241
 10
85.0002947655
 20
-16.4222929708
 10
85.0003028664
 20
-16.895024869
 10
85.0003105204
 20
-17.2238423428
 10
85.0003175601
 20
-17.4423228691
 10
85.0003291258
 20
-17.6701883375
 10
85.0003362171
 20
-17.7594821477
 10
85.0003348743
 20
-17.8147547823
 10
85.0003130246
 20
-17.8669671202
 10
85.000265036
 20
-17.9032788461
 10
85.0001852292
 20
-17.9378571457
 10
85.0000678767
 20
-17.9771193533
  0
LWPOLYLINE
  5
75
330
1F
100
AcDbEntity
  8
0
  6
Continuous
 62
     7
370
    25
100
AcDbPolyline
 90
       19
 70
   128
 43
0.0
 10
85.0000678791
 20
-17.9771193265
 10
49.9644138182
 20
-17.9736145006
 10
45.4228054158
 20
-17.9495425277
 10
43.4763142025
 20
-17.9689890174
 10
41.2829824108
 20
-18.0562108171
 10
38.0289452954
 20
-18.382377947
 10
36.375575067
 20
-18.6564956513
 10
33.9286871405
 20
-19.2131729665
 10
31.029046224
 20
-20.1258885612
 10
27.9661556234
 20
-21.4040595617
 10
25.8780771662
 20
-22.4745071431
 10
23.3656220142
 20
-24.004885057
 10
21.6867156566
 20
-25.2037353563
 10
20.0345210175
 20
-26.4407291661
 10
16.6253264995
 20
-28.6394612538
 10
13.2935708253
 20
-30.2767546772
 10
9.9213921489
 20
-31.5063127327
 10
8.0200524571
 20
-32.0256183167
 10
4.1139247684
 20
-32.7318765473
  0
LWPOLYLINE
  5
77
330
1F
100
AcDbEntity
  8
0
  6
Continuous
 62
     7
370
    25
100
AcDbPolyline
 90
        3
 70
   128
 43
0.0
 10
3.998627654
 20
-32.6297811886
 10
0.0276518102
 20
-32.8650138992
 10
-3.998627654
 20
-32.6298492488
  0
LWPOLYLINE
  5
79
330
1F
100
AcDbEntity
  8
0
  6
Continuous
 62
     7
370
    25
100
AcDbPolyline
 90
       24
 70
   128
 43
0.0
 10
-4.1139247684
 20
-32.731840581
 10
-6.8074601046
 20
-32.2950873127
 10
-9.4574669106
 20
-31.644004856
 10
-12.0456021369
 20
-30.7790335136
 10
-14.7229487247
 20
-29.6288548919
 10
-16.74624576
 20
-28.5716877086
 10
-18.6927940009
 20
-27.3793966356
 10
-20.2689307332
 20
-26.2620584164
 10
-21.8140553298
 20
-25.10059628
 10
-24.2170481967
 20
-23.4544282392
 10
-27.2800620909
 20
-21.7370925302
 10
-29.8417523255
 20
-20.5817238544
 10
-31.818871493
 20
-19.8487520689
 10
-34.6925278712
 20
-19.0184764028
 10
-36.6964552778
 20
-18.5966003568
 10
-39.7484419504
 20
-18.1762709654
 10
-42.5669704505
 20
-17.9950737126
 10
-45.3921287906
 20
-17.9493648378
 10
-48.9842038497
 20
-17.9694172174
 10
-51.0318219457
 20
-17.9753305801
 10
-53.0794878484
 20
-17.9758564846
 10
-59.7198690719
 20
-17.9751610531
 10
-72.3599188465
 20
-17.9780161237
 10
-84.9999696423
 20
-17.9770946352
  0
LWPOLYLINE
  5
7A
330
1F
100
AcDbEntity
  8
0
  6
Continuous
 62
     7
370
    25
100
AcDbPolyline
 90
       19
 70
   128
 43
0.0
 10
-84.9999696476
 20
-17.9771732485
 10
-84.9999359702
 20
-17.9363090788
 10
-84.9999559392
 20
-17.900221112
 10
-85.0000203396
 20
-17.8214283104
 10
-85.0000922545
 20
-17.6216800591
 10
-85.0001800908
 20
-17.2656913255
 10
-85.000279961
 20
-16.7621396184
 10
-85.0003879775
 20
-16.1427328274
 10
-85.0005560203
 20
-15.0966888685
 10
-85.0007206141
 20
-14.0037089164
 10
-85.0008688125
 20
-12.8809186623
 10
-85.0010788832
 20
-10.1340006214
 10
-85.0008903426
 20
-5.7817168464
 10
-85.0003593424
 20
-1.3286908563
 10
-84.9998676092
 20
3.0802127103
 10
-84.9997509136
 20
9.4734022657
 10
-85.0000998107
 20
15.7589790992
 10
-85.000410511
 20
22.0913696014
 10
-85.0001792429
 20
28.4494067469
  0
LWPOLYLINE
  5
7C
330
1F
100
AcDbEntity
  8
0
  6
Continuous
 62
     7
370
    25
100
AcDbPolyline
 90
       59
 70
   128
 43
0.0
 10
84.5807906924
 20
29.041001871
 10
80.7259438557
 20
28.9149616744
 10
76.7257731967
 20
28.7950292905
 10
72.5802787154
 20
28.6812047193
 10
68.2894604119
 20
28.5734879608
 10
64.2951645276
 20
28.4816247006
 10
60.2125158415
 20
28.3955308044
 10
56.0415143533
 20
28.3152062721
 10
51.7821600632
 20
28.2406511039
 10
47.2269911431
 20
28.1687797844
 10
42.6385864973
 20
28.1041211743
 10
38.1724219485
 20
28.0482568918
 10
33.8371224034
 20
28.0004725646
 10
29.6373738648
 20
27.9600643842
 10
25.3937100562
 20
27.9249335704
 10
21.1061309776
 20
27.8950801231
 10
18.86656017
 20
27.8816860028
 10
16.6275298167
 20
27.8697928756
 10
14.3890399178
 20
27.8594007414
 10
12.1510904732
 20
27.8505096003
 10
9.9136814829
 20
27.8431194522
 10
7.6768129469
 20
27.8372302972
 10
5.4404848653
 20
27.8328421352
 10
3.3909922313
 20
27.8301382341
 10
1.341953729
 20
27.8286955841
 10
-0.6202938405
 20
27.8284963857
 10
-2.2385615507
 20
27.8292029582
 10
-3.8580780392
 20
27.8306968498
 10
-5.4788433058
 20
27.8329780602
 10
-8.956116804
 20
27.8405175445
 10
-12.2449665051
 20
27.8509557221
 10
-14.9396257602
 20
27.8618962242
 10
-17.6284181203
 20
27.8749672107
 10
-20.3113435857
 20
27.8901686815
 10
-21.6187926756
 20
27.8983607948
 10
-22.9224601918
 20
27.9070425681
 10
-24.2223461343
 20
27.9162140013
 10
-25.518450503
 20
27.9258750944
 10
-26.810773298
 20
27.9360258475
 10
-28.0993145193
 20
27.9466662605
 10
-29.3840741668
 20
27.9577963334
 10
-30.6650522406
 20
27.9694160663
 10
-34.6663645129
 20
28.0091230128
 10
-38.6303240976
 20
28.0536666003
 10
-39.5131304394
 20
28.0643074093
 10
-40.3940625727
 20
28.0751909016
 10
-41.2731204975
 20
28.0863170772
 10
-42.2691084671
 20
28.099246182
 10
-44.0192773412
 20
28.1228003739
 10
-50.7682307773
 20
28.223990825
 10
-56.6233856842
 20
28.3260004737
 10
-62.3175062749
 20
28.4390110955
 10
-65.563049665
 20
28.5099737155
 10
-68.7437005372
 20
28.5844555796
 10
-71.8594588913
 20
28.6624566878
 10
-75.0629002674
 20
28.7481987554
 10
-78.3310721701
 20
28.8419374977
 10
-81.5037482281
 20
28.9395364378
 10
-84.5809284411
 20
29.040995576
  0
LWPOLYLINE
  5
7E
330
1F
100
AcDbEntity
  8
0
  6
Continuous
 62
     7
370
    25
100
AcDbPolyline
 90
        3
 70
   128
 43
0.0
 10
87.1821415002
 20
29.1325062712
 10
87.3031738742
 20
29.1388582038
 10
87.3496749906
 20
29.1463132122
  0
LWPOLYLINE
  5
81
330
1F
100
AcDbEntity
  8
0
  6
Continuous
 62
     7
370
    25
100
AcDbPolyline
 90
        3
 70
   128
 43
0.0
 10
-87.3496749906
 20
29.1463132122
 10
-87.3031742393
 20
29.1388582337
 10
-87.1821415002
 20
29.1325062712
  0
LWPOLYLINE
  5
86
330
1F
100
AcDbEntity
  8
0
  6
Continuous
 62
     7
370
    25
100
AcDbPolyline
 90
        3
 70
   128
 43
0.0
 10
87.6142440559
 20
28.5340047522
 10
86.3135823315
 20
28.4912048924
 10
85.0001668049
 20
28.4493511414
  0
LWPOLYLINE
  5
87
330
1F
100
AcDbEntity
  8
0
  6
Continuous
 62
     7
370
    25
100
AcDbPolyline
 90
       20
 70
   128
 43
0.0
 10
86.8011015318
 20
-17.9772290827
 10
86.7734996257
 20
-17.941869444
 10
86.7776121255
 20
-17.9316088763
 10
86.8034841439
 20
-17.9185463013
 10
86.8955000267
 20
-17.8679912595
 10
86.9701607557
 20
-17.807143193
 10
87.0982151712
 20
-17.6677928589
 10
87.2526429406
 20
-17.4227296908
 10
87.3174048622
 20
-17.2677587584
 10
87.4653109876
 20
-16.7183349578
 10
87.5155571282
 20
-16.2934145341
 10
87.5286471947
 20
-16.0023032911
 10
87.5348792713
 20
-15.7398486889
 10
87.537356944
 20
-15.4945328015
 10
87.5385783265
 20
-15.2555558824
 10
87.5399947642
 20
-15.0159227624
 10
87.5593708438
 20
-12.1121725345
 10
87.5890742272
 20
-6.3056931225
 10
87.6215363978
 20
5.3078806676
 10
87.6142446873
 20
28.5340047521
  0
LWPOLYLINE
  5
8A
330
1F
100
AcDbEntity
  8
0
  6
Continuous
 62
     7
370
    25
100
AcDbPolyline
 90
       21
 70
   128
 43
0.0
 10
-86.8011015337
 20
-17.9772235778
 10
-86.7737330379
 20
-17.9423275609
 10
-86.7768994313
 20
-17.9322963553
 10
-86.7971701547
 20
-17.9213583222
 10
-86.8749925421
 20
-17.8816660912
 10
-86.9413365052
 20
-17.8326602114
 10
-87.0380406364
 20
-17.738168367
 10
-87.1281594764
 20
-17.6292313876
 10
-87.2185860568
 20
-17.4897661055
 10
-87.2963636542
 20
-17.3223547568
 10
-87.3909768949
 20
-17.0379227157
 10
-87.455901861
 20
-16.7660074029
 10
-87.5070166579
 20
-16.4025917115
 10
-87.5228904931
 20
-16.1611575879
 10
-87.5301886898
 20
-15.9525225884
 10
-87.5346169123
 20
-15.7567528235
 10
-87.5687826094
 20
-10.4934495907
 10
-87.593430236
 20
-5.2292033997
 10
-87.6105131182
 20
0.0351130507
 10
-87.6215184656
 20
5.2994232539
 10
-87.6142446882
 20
28.5340047487
  0
LWPOLYLINE
  5
8D
330
1F
100
AcDbEntity
  8
0
  6
Continuous
 62
     7
370
    25
100
AcDbPolyline
 90
        3
 70
   128
 43
0.0
 10
87.9493094713
 20
28.5466787123
 10
87.8549212201
 20
28.5398730464
 10
87.6142446873
 20
28.5340047521
  0
LWPOLYLINE
  5
90
330
1F
100
AcDbEntity
  8
0
  6
Continuous
 62
     7
370
    25
100
AcDbPolyline
 90
       31
 70
   128
 43
0.0
 10
88.0
 20
-16.7777012537
 10
87.9745781251
 20
-16.7420149589
 10
87.9619421057
 20
-16.705237374
 10
87.9590846192
 20
-16.6667187047
 10
87.9569561084
 20
-16.5997367545
 10
87.9543615166
 20
-16.4357726958
 10
87.9528332287
 20
-16.0387786284
 10
87.9526148125
 20
-15.6264264823
 10
87.952546626
 20
-14.9878956134
 10
87.9524040739
 20
-14.3589888318
 10
87.9521906872
 20
-13.5367686028
 10
87.9519549049
 20
-12.6503712774
 10
87.9518146748
 20
-12.0856422488
 10
87.9515936147
 20
-11.112354979
 10
87.9513870094
 20
-10.1870897308
 10
87.9511948589
 20
-9.3098465041
 10
87.9510171633
 20
-8.4806252991
 10
87.9508539226
 20
-7.6994261157
 10
87.9507051367
 20
-6.966248954
 10
87.9505708056
 20
-6.2810938138
 10
87.950213039
 20
-4.3293957528
 10
87.9498914535
 20
-2.3844305953
 10
87.9496060491
 20
-0.4461983412
 10
87.9493568258
 20
1.4853010094
 10
87.9491437835
 20
3.4100674566
 10
87.9489669224
 20
5.3281010003
 10
87.9486956872
 20
9.692999924
 10
87.9485943256
 20
14.197307157
 10
87.9486628375
 20
18.8410226994
 10
87.9489012228
 20
23.6241465511
 10
87.9493094817
 20
28.5466787121
  0
LWPOLYLINE
  5
91
330
1F
100
AcDbEntity
  8
0
  6
Continuous
 62
     7
370
    25
100
AcDbPolyline
 90
        3
 70
   128
 43
0.0
 10
-87.6142446882
 20
28.5340047487
 10
-87.85492122
 20
28.5398726577
 10
-87.9493094713
 20
28.5466787162
  0
LWPOLYLINE
  5
94
330
1F
100
AcDbEntity
  8
0
  6
Continuous
 62
     7
370
    25
100
AcDbPolyline
 90
       37
 70
   128
 43
0.0
 10
-87.9493094817
 20
28.5466787161
 10
-87.948723246
 20
20.4166020476
 10
-87.9486092709
 20
12.6743087328
 10
-87.9489675565
 20
5.3197987716
 10
-87.9491544839
 20
3.3046511779
 10
-87.9493813092
 20
1.2822119218
 10
-87.9496480324
 20
-0.7475189968
 10
-87.9499546535
 20
-2.7845415777
 10
-87.9503011726
 20
-4.8288558211
 10
-87.9506656307
 20
-6.767837872
 10
-87.950798629
 20
-7.4300987613
 10
-87.950944003
 20
-8.1335456104
 10
-87.9511017525
 20
-8.8781784194
 10
-87.9512718777
 20
-9.6639971883
 10
-87.9514543785
 20
-10.491001917
 10
-87.951649255
 20
-11.3591926056
 10
-87.9518370219
 20
-12.1818212058
 10
-87.9519289415
 20
-12.5495692918
 10
-87.9520627854
 20
-13.0579882434
 10
-87.9522458841
 20
-13.7350867127
 10
-87.9524241801
 20
-14.4125485103
 10
-87.952525393
 20
-14.8386146266
 10
-87.9525506253
 20
-14.9912871899
 10
-87.9525549752
 20
-15.2927514459
 10
-87.952598963
 20
-15.639019445
 10
-87.9528539487
 20
-16.0530831723
 10
-87.9545043164
 20
-16.4512596705
 10
-87.9556543579
 20
-16.5376467444
 10
-87.9572987908
 20
-16.6129390807
 10
-87.9595444762
 20
-16.6763877887
 10
-87.9624609767
 20
-16.7093621386
 10
-87.96865862
 20
-16.7327389662
 10
-87.9749264353
 20
-16.7424888929
 10
-87.9850826136
 20
-16.7566646638
 10
-87.9926469339
 20
-16.7672586475
 10
-87.9991336802
 20
-16.7764337723
 10
-88.0
 20
-16.7777012537
  0
LINE
  5
9B
330
1F
100
AcDbEntity
  8
0
  6
Continuous
 62
     7
370
    25
100
AcDbLine
 10
4.1139247684
 20
-32.7318765473
 30
0.0
 11
3.998627654
 21
-32.6297811886
 31
0.0
  0
LINE
  5
9C
330
1F
100
AcDbEntity
  8
0
  6
Continuous
 62
     7
370
    25
100
AcDbLine
 10
-3.998627654
 20
-32.6298492488
 30
0.0
 11
-4.1139247684
 21
-32.731840581
 31
0.0
  0
LINE
  5
9D
330
1F
100
AcDbEntity
  8
0
  6
Continuous
 62
     7
370
    25
100
AcDbLine
 10
84.5807906924
 20
29.041001871
 30
0.0
 11
87.1821415002
 21
29.1325062712
 31
0.0
  0
LINE
  5
9E
330
1F
100
AcDbEntity
  8
0
  6
Continuous
 62
     7
370
    25
100
AcDbLine
 10
-87.1821415002
 20
29.1325062712
 30
0.0
 11
-84.5809284411
 21
29.040995576
 31
0.0
  0
LINE
  5
9F
330
1F
100
AcDbEntity
  8
0
  6
Continuous
 62
     7
370
    25
100
AcDbLine
 10
-87.4003655038
 20
29.1970037254
 30
0.0
 11
-87.3496749906
 21
29.1463132122
 31
0.0
  0
LINE
  5
A0
330
1F
100
AcDbEntity
  8
0
  6
Continuous
 62
     7
370
    25
100
AcDbLine
 10
-87.4003655038
 20
29.1970037254
 30
0.0
 11
87.4003655038
 21
29.1970037254
 31
0.0
  0
LINE
  5
A1
330
1F
100
AcDbEntity
  8
0
  6
Continuous
 62
     7
370
    25
100
AcDbLine
 10
87.3496749906
 20
29.1463132122
 30
0.0
 11
87.4003655038
 21
29.1970037254
 31
0.0
  0
LINE
  5
A2
330
1F
100
AcDbEntity
  8
0
  6
Continuous
 62
     7
370
    25
100
AcDbLine
 10
86.801101552
 20
-17.9771664722
 30
0.0
 11
85.0000678823
 21
-17.9771732338
 31
0.0
  0
LINE
  5
A3
330
1F
100
AcDbEntity
  8
0
  6
Continuous
 62
     7
370
    25
100
AcDbLine
 10
-87.6142439801
 20
28.5340047527
 30
0.0
 11
-85.000179234
 21
28.4494067464
 31
0.0
  0
LINE
  5
A4
330
1F
100
AcDbEntity
  8
0
  6
Continuous
 62
     7
370
    25
100
AcDbLine
 10
-84.9999696497
 20
-17.9771732478
 30
0.0
 11
-86.8011015521
 21
-17.9771664722
 31
0.0
  0
LINE
  5
A5
330
1F
100
AcDbEntity
  8
0
  6
Continuous
 62
     7
370
    25
100
AcDbLine
 10
88.0
 20
28.5973692292
 30
0.0
 11
87.9493094817
 21
28.5466787121
 31
0.0
  0
LINE
  5
A6
330
1F
100
AcDbEntity
  8
0
  6
Continuous
 62
     7
370
    25
100
AcDbLine
 10
88.0
 20
28.5973692292
 30
0.0
 11
88.0
 21
-16.7777012537
 31
0.0
  0
LINE
  5
A7
330
1F
100
AcDbEntity
  8
0
  6
Continuous
 62
     7
370
    25
100
AcDbLine
 10
-88.0
 20
28.5973692292
 30
0.0
 11
-87.9493094817
 21
28.5466787108
 31
0.0
  0
LINE
  5
A8
330
1F
100
AcDbEntity
  8
0
  6
Continuous
 62
     7
370
    25
100
AcDbLine
 10
-88.0
 20
-16.7777012537
 30
0.0
 11
-88.0
 21
28.5973692292
 31
0.0
  0
ARC
  5
A9
330
1F
100
AcDbEntity
  8
0
  6
Continuous
 62
     7
370
    25
100
AcDbCircle
 10
-84.4544748356
 20
28.5070266339
 30
0.0
 40
0.5487379581617202
100
AcDbArc
 50
103.3232390352
 51
186.0274187325
  0
ARC
  5
AA
330
1F
100
AcDbEntity
  8
0
  6
Continuous
 62
     7
370
    25
100
AcDbCircle
 10
84.4545360681
 20
28.5070523354
 30
0.0
 40
0.5486732513561016
100
AcDbArc
 50
353.9633300157
 51
76.6965139814
  0
ARC
  5
AB
330
1F
100
AcDbEntity
  8
0
  6
Continuous
 62
     7
370
    25
100
AcDbCircle
 10
87.0641461453
 20
28.5920825866
 30
0.0
 40
0.5531551886186109
100
AcDbArc
 50
353.9731939164
 51
77.683409282
  0
ARC
  5
AC
330
1F
100
AcDbEntity
  8
0
  6
Continuous
 62
     7
370
    25
100
AcDbCircle
 10
-87.0641461453
 20
28.5920825866
 30
0.0
 40
0.5531551886189785
100
AcDbArc
 50
102.3165907181
 51
186.0268060835
  0
ARC
  5
AD
330
1F
100
AcDbEntity
  8
0
  6
Continuous
 62
     7
370
    25
100
AcDbCircle
 10
87.3488188151
 20
28.5458225405
 30
0.0
 40
0.6004912820810654
100
AcDbArc
 50
0.0816920009
 51
89.9183081236
  0
ARC
  5
AE
330
1F
100
AcDbEntity
  8
0
  6
Continuous
 62
     7
370
    25
100
AcDbCircle
 10
86.8014438878
 20
-16.7786728008
 30
0.0
 40
1.198556505956732
100
AcDbArc
 50
269.9836340201
 51
0.0464438325
  0
ARC
  5
AF
330
1F
100
AcDbEntity
  8
0
  6
Continuous
 62
     7
370
    25
100
AcDbCircle
 10
-87.34881881
 20
28.5458225353
 30
0.0
 40
0.6004912820804893
100
AcDbArc
 50
90.0816918763
 51
179.9183081237
  0
ARC
  5
B0
330
1F
100
AcDbEntity
  8
0
  6
Continuous
 62
     7
370
    25
100
AcDbCircle
 10
-86.8012953508
 20
-16.7785188236
 30
0.0
 40
1.198704928025436
100
AcDbArc
 50
179.9609217321
 51
270.0092640794
  0
ARC
  5
B1
330
1F
100
AcDbEntity
  8
0
  6
Continuous
 62
     7
370
    25
100
AcDbCircle
 10
-87.4004904489
 20
28.5974941743
 30
0.0
 40
0.5995095640946279
100
AcDbArc
 50
89.9880588576
 51
180.0119411424
  0
ARC
  5
B2
330
1F
100
AcDbEntity
  8
0
  6
Continuous
 62
     7
370
    25
100
AcDbCircle
 10
87.4004904489
 20
28.5974941743
 30
0.0
 40
0.5995095640946384
100
AcDbArc
 50
359.9880588576
 51
90.0119411424
  0
LWPOLYLINE
  5
B3
330
1B
100
AcDbEntity
 67
     1
  8
0
  6
Continuous
 62
     7
370
    25
100
AcDbPolyline
 90
        3
 70
   128
 43
0.0
 10
5.8693159725
 20
27.6763291601
 10
5.6930362941
 20
27.7855802341
 10
5.489559481
 20
27.8284741523
  0
LWPOLYLINE
  5
B5
330
1B
100
AcDbEntity
 67
     1
  8
0
  6
Continuous
 62
     7
370
    25
100
AcDbPolyline
 90
       49
 70
   128
 43
0.0
 10
-31.4999144804
 20
-32.8650520051
 10
-30.338521984
 20
-32.8029676939
 10
-26.1881487882
 20
-32.5791224353
 10
-22.2623947491
 20
-32.3678212924
 10
-18.4595561737
 20
-32.1775805207
 10
-14.8429876011
 20
-31.9945374013
 10
-11.4187150105
 20
-31.6634307589
 10
-8.2561001467
 20
-31.0911730427
 10
-5.3768831819
 20
-30.2921667249
 10
-3.0986802129
 20
-29.4519389052
 10
-1.1874944856
 20
-28.5923400756
 10
0.3446477569
 20
-27.793761203
 10
1.672335288
 20
-27.0170666698
 10
3.1297677216
 20
-26.0661537368
 10
4.7011822559
 20
-24.9135168524
 10
6.3881236981
 20
-23.508156857
 10
8.1722580997
 20
-21.7965145171
 10
9.9805258708
 20
-19.768764203
 10
11.72778447
 20
-17.4412038499
 10
13.0817987329
 20
-15.29731481
 10
14.3426198136
 20
-12.9060697345
 10
15.433705836
 20
-10.3435786075
 10
16.2818468884
 20
-7.7877426308
 10
16.8615420793
 20
-5.4649890052
 10
17.2155315821
 20
-3.5066596374
 10
17.4120771884
 20
-1.9628803672
 10
17.5127679398
 20
-0.797765969
 10
17.563717415
 20
0.083846886
 10
17.5829134355
 20
0.6770838133
 10
17.5926828697
 20
1.3745523646
 10
17.5820598016
 20
2.4002801034
 10
17.510303464
 20
3.9044009916
 10
17.3437410457
 20
5.6604665213
 10
17.0585089347
 20
7.5756076941
 10
16.6921526432
 20
9.3701156041
 10
16.2892310563
 20
10.9511042655
 10
15.8916054528
 20
12.2696896437
 10
15.5436307161
 20
13.2922092456
 10
15.2568437714
 20
14.0667987393
 10
14.9184685557
 20
14.9170826648
 10
14.4799532567
 20
15.9341140032
 10
13.6243192918
 20
17.6997926291
 10
12.6776377687
 20
19.4013438029
 10
11.6714105838
 20
20.9992742821
 10
10.9474034433
 20
22.0435167759
 10
10.0068418729
 20
23.2893591526
 10
8.8141856
 20
24.7166629829
 10
7.3246950499
 20
26.3015372543
 10
5.8601958744
 20
27.6691719442
  0
LWPOLYLINE
  5
B6
330
1B
100
AcDbEntity
 67
     1
  8
0
  6
Continuous
 62
     7
370
    25
100
AcDbPolyline
 90
       23
 70
   128
 43
0.0
 10
-26.1844376897
 20
-17.5929891848
 10
-26.1846743456
 20
-17.5941732549
 10
-26.1156681386
 20
-17.5916290703
 10
-25.9869582554
 20
-17.5856205782
 10
-25.7976936162
 20
-17.5762824273
 10
-25.6799302364
 20
-17.5703857756
 10
-25.546450626
 20
-17.5636729052
 10
-25.396991077
 20
-17.5561398812
 10
-25.231255685
 20
-17.5477782694
 10
-24.7203377685
 20
-17.5219810059
 10
-24.1645855995
 20
-17.4938053109
 10
-23.6045116954
 20
-17.4650220144
 10
-22.9420890861
 20
-17.4302356464
 10
-22.3017509809
 20
-17.3964099994
 10
-21.5614515947
 20
-17.3588422097
 10
-20.9109349354
 20
-17.3266559846
 10
-20.3382925661
 20
-17.2957266078
 10
-19.8144209925
 20
-17.2644204422
 10
-19.3418839135
 20
-17.2332910748
 10
-18.9273824014
 20
-17.2040282344
 10
-18.5803217697
 20
-17.1786300551
 10
-18.3994472053
 20
-17.1646065531
 10
-18.4127923158
 20
-17.1645973159
  0
LWPOLYLINE
  5
B7
330
1B
100
AcDbEntity
 67
     1
  8
0
  6
Continuous
 62
     7
370
    25
100
AcDbPolyline
 90
       37
 70
   128
 43
0.0
 10
-32.2484134779
 20
28.5466787161
 10
-32.2316258843
 20
20.4166020476
 10
-32.2283620658
 20
12.6743087328
 10
-32.2386220223
 20
5.3197987716
 10
-32.2439749217
 20
3.3046511779
 10
-32.2504703483
 20
1.2822119218
 10
-32.2581083019
 20
-0.7475189968
 10
-32.2668887827
 20
-2.7845415777
 10
-32.2768117907
 20
-4.8288558211
 10
-32.2872485065
 20
-6.767837872
 10
-32.2910570792
 20
-7.4300987613
 10
-32.2952200436
 20
-8.1335456104
 10
-32.2997373997
 20
-8.8781784194
 10
-32.3046091476
 20
-9.6639971883
 10
-32.3098352872
 20
-10.491001917
 10
-32.3154158185
 20
-11.3591926056
 10
-32.3207927603
 20
-12.1818212058
 10
-32.3234249935
 20
-12.5495692918
 10
-32.3272577806
 20
-13.0579882434
 10
-32.3325010414
 20
-13.7350867127
 10
-32.337606771
 20
-14.4125485103
 10
-32.3405051304
 20
-14.8386146266
 10
-32.3412276874
 20
-14.9912871899
 10
-32.3413522515
 20
-15.2927514459
 10
-32.3426118975
 20
-15.639019445
 10
-32.3499137344
 20
-16.0530831723
 10
-32.3971740806
 20
-16.4512596705
 10
-32.4301069615
 20
-16.5376467444
 10
-32.4771973583
 20
-16.6129390807
 10
-32.5415053724
 20
-16.6763877887
 10
-32.6250230221
 20
-16.7093621386
 10
-32.8025003033
 20
-16.7327389662
 10
-32.981987051
 20
-16.7424888929
 10
-33.2728219456
 20
-16.7566646638
 10
-33.4894357354
 20
-16.7672586475
 10
-33.6751918482
 20
-16.7764337723
 10
-33.7
 20
-16.7777012537
  0
LWPOLYLINE
  5
B8
330
1B
100
AcDbEntity
 67
     1
  8
0
  6
Continuous
 62
     7
370
    25
100
AcDbPolyline
 90
        3
 70
   128
 43
0.0
 10
-31.4576975663
 20
28.5340047487
 10
-31.8220454376
 20
28.5398726577
 10
-32.2484131819
 20
28.5466787162
  0
LWPOLYLINE
  5
B9
330
1B
100
AcDbEntity
 67
     1
  8
0
  6
Continuous
 62
     7
370
    25
100
AcDbPolyline
 90
       21
 70
   128
 43
0.0
 10
-33.6999970105
 20
-17.9772235778
 10
-32.9900940101
 20
-17.9423275609
 10
-32.793292693
 20
-17.9322963553
 10
-32.6610344461
 20
-17.9213583222
 10
-32.4326845723
 20
-17.8816660912
 10
-32.2813657375
 20
-17.8326602114
 10
-32.0946298587
 20
-17.738168367
 10
-31.9534720523
 20
-17.6292313876
 10
-31.8268909993
 20
-17.4897661055
 10
-31.713634716
 20
-17.3223547568
 10
-31.5841664658
 20
-17.0379227157
 10
-31.5163267226
 20
-16.7660074029
 10
-31.4805572311
 20
-16.4025917115
 10
-31.4738575817
 20
-16.1611575879
 10
-31.4733895894
 20
-15.9525225884
 10
-31.474077293
 20
-15.7567528235
 10
-31.4723609109
 20
-10.4934495907
 10
-31.4660404567
 20
-5.2292033997
 10
-31.4602077008
 20
0.0351130507
 10
-31.4559522784
 20
5.2994232539
 10
-31.4576975663
 20
28.5340047487
  0
LWPOLYLINE
  5
DF
330
1B
100
AcDbEntity
 67
     1
  8
0
  6
Continuous
 62
     8
370
    25
100
AcDbPolyline
 90
       18
 70
   128
 43
0.0
 10
-32.177084612
 20
-17.9011248072
 10
-32.1575306806
 20
-17.900221112
 10
-31.3507810201
 20
-17.8214283104
 10
-30.7518810956
 20
-17.6216800591
 10
-30.206734847
 20
-17.2656913255
 10
-29.76479617
 20
-16.7621396184
 10
-29.4696669455
 20
-16.1427328274
 10
-29.3134283434
 20
-15.0966888685
 10
-29.2660172025
 20
-14.0037089164
 10
-29.2201288029
 20
-12.8809186623
 10
-29.1161137353
 20
-10.1340006214
 10
-28.9739774919
 20
-5.7817168464
 10
-28.859385442
 20
-1.3286908563
 10
-28.7756969
 20
3.0802127103
 10
-28.7047288867
 20
9.4734022657
 10
-28.6910308837
 20
15.7589790992
 10
-28.73135941
 20
22.0913696014
 10
-28.8243074473
 20
28.4494067469
  0
LWPOLYLINE
  5
E0
330
1B
100
AcDbEntity
 67
     1
  8
0
  6
Continuous
 62
     8
370
    25
100
AcDbPolyline
 90
       13
 70
   128
 43
0.0
 10
-28.8244738756
 20
28.4494036236
 10
-23.4958662208
 20
28.2832784775
 10
-18.5551635323
 20
28.1372107102
 10
-14.0119344545
 20
28.0115922739
 10
-9.8997140928
 20
27.9068115958
 10
-6.231556489
 20
27.8224688544
 10
-3.030971066
 20
27.7580630282
 10
-0.3218527514
 20
27.7122826578
 10
1.9000721646
 20
27.6823974408
 10
3.6356615623
 20
27.6655061761
 10
4.8822128021
 20
27.6625714068
 10
5.6271255539
 20
27.6712313403
 10
5.8670454578
 20
27.6762862483
  0
LINE
  5
E4
330
1B
100
AcDbEntity
 67
     1
  8
0
  6
Continuous
 62
     7
370
    25
100
AcDbLine
 10
-33.7
 20
-17.977223736
 30
0.0
 11
-33.7
 21
29.1970037254
 31
0.0
  0
LINE
  5
E5
330
1B
100
AcDbEntity
 67
     1
  8
0
  6
Continuous
 62
     7
370
    25
100
AcDbLine
 10
-33.7
 20
28.5973692292
 30
0.0
 11
-32.2484134781
 21
28.5466787108
 31
0.0
  0
LINE
  5
E6
330
1B
100
AcDbEntity
 67
     1
  8
0
  6
Continuous
 62
     7
370
    25
100
AcDbLine
 10
-33.7
 20
29.1970037254
 30
0.0
 11
5.4889227983
 21
27.8284963857
 31
0.0
  0
LINE
  5
E7
330
1B
100
AcDbEntity
 67
     1
  8
0
  6
Continuous
 62
     7
370
    25
100
AcDbLine
 10
-31.457697717
 20
28.5340047527
 30
0.0
 11
-28.8243074386
 21
28.4494067464
 31
0.0
  0
LINE
  5
E8
330
1B
100
AcDbEntity
 67
     1
  8
0
  6
Continuous
 62
     7
370
    25
100
AcDbLine
 10
-32.7194801079
 20
-17.9261919004
 30
0.0
 11
-32.177084612
 21
-17.9011248072
 31
0.0
  0
LINE
  5
E9
330
1B
100
AcDbEntity
 67
     1
  8
0
  6
Continuous
 62
     7
370
    25
100
AcDbLine
 10
-31.5
 20
-32.8634519992
 30
0.0
 11
-31.5
 21
-32.6298492488
 31
0.0
  0
LINE
  5
EA
330
1B
100
AcDbEntity
 67
     1
  8
0
  6
Continuous
 62
     7
370
    25
100
AcDbLine
 10
-31.5
 20
-32.6298492488
 30
0.0
 11
-33.7
 21
-32.731840581
 31
0.0
  0
LINE
  5
EB
330
1B
100
AcDbEntity
 67
     1
  8
0
  6
Continuous
 62
     7
370
    25
100
AcDbLine
 10
-33.7
 20
-32.731840581
 30
0.0
 11
-33.7
 21
-18.1125476216
 31
0.0
  0
LINE
  5
EC
330
1B
100
AcDbEntity
 67
     1
  8
0
  6
Continuous
 62
     7
370
    25
100
AcDbLine
 10
-34.0
 20
-14.8009356769
 30
0.0
 11
-33.7
 21
-14.8061721963
 31
0.0
  0
LINE
  5
ED
330
1B
100
AcDbEntity
 67
     1
  8
0
  6
Continuous
 62
     7
370
    25
100
AcDbLine
 10
-33.7
 20
0.1
 30
0.0
 11
-34.0
 21
0.1
 31
0.0
  0
LINE
  5
EE
330
1B
100
AcDbEntity
 67
     1
  8
0
  6
Continuous
 62
     7
370
    25
100
AcDbLine
 10
-33.7
 20
25.1909312579
 30
0.0
 11
-34.0
 21
25.1856947385
 31
0.0
  0
LINE
  5
EF
330
1B
100
AcDbEntity
 67
     1
  8
0
  6
Continuous
 62
     7
370
    25
100
AcDbLine
 10
-34.0
 20
-4.1
 30
0.0
 11
-33.7
 21
-4.1
 31
0.0
  0
LINE
  5
F0
330
1B
100
AcDbEntity
 67
     1
  8
0
  6
Continuous
 62
     7
370
    25
100
AcDbLine
 10
-34.0
 20
-14.99313827
 30
0.0
 11
-33.7
 21
-14.9774159362
 31
0.0
  0
LINE
  5
F1
330
1B
100
AcDbEntity
 67
     1
  8
0
  6
Continuous
 62
     7
370
    25
100
AcDbLine
 10
-33.7
 20
-23.9070849814
 30
0.0
 11
-34.0
 21
-23.9239327307
 31
0.0
  0
LINE
  5
F2
330
1B
100
AcDbEntity
 67
     1
  8
0
  6
Continuous
 62
     7
370
    25
100
AcDbLine
 10
-33.7
 20
-26.3357898366
 30
0.0
 11
-34.0
 21
-26.3467875173
 31
0.0
  0
LINE
  5
F3
330
1B
100
AcDbEntity
 67
     1
  8
0
  6
Continuous
 62
     7
370
    25
100
AcDbLine
 10
-34.0
 20
-29.4124138541
 30
0.0
 11
-33.7
 21
-29.3963849293
 31
0.0
  0
LINE
  5
F4
330
1B
100
AcDbEntity
 67
     1
  8
0
  6
Continuous
 62
     7
370
    25
100
AcDbLine
 10
-33.7
 20
-26.9967521384
 30
0.0
 11
-34.0
 21
-27.008151792
 31
0.0
  0
LINE
  5
F5
330
1B
100
AcDbEntity
 67
     1
  8
0
  6
Continuous
 62
     7
370
    25
100
AcDbLine
 10
-34.0
 20
-29.4124138541
 30
0.0
 11
-34.0
 21
25.1856947385
 31
0.0
  0
LINE
  5
F6
330
1B
100
AcDbEntity
 67
     1
  8
0
  6
Continuous
 62
     8
370
    25
100
AcDbLine
 10
-33.7
 20
-10.8067814157
 30
0.0
 11
-34.0
 21
-10.8015448962
 31
0.0
  0
LINE
  5
F7
330
1B
100
AcDbEntity
 67
     1
  8
0
  6
Continuous
 62
     8
370
    25
100
AcDbLine
 10
-33.7
 20
21.1863039578
 30
0.0
 11
-34.0
 21
21.1863039578
 31
0.0
  0
LINE
  5
F8
330
1B
100
AcDbEntity
 67
     1
  8
0
  6
Continuous
 62
     8
370
    25
100
AcDbLine
 10
-34.0
 20
-23.3484255751
 30
0.0
 11
-33.7
 21
-23.3345815214
 31
0.0
  0
ARC
  5
F9
330
1B
100
AcDbEntity
 67
     1
  8
0
  6
Continuous
 62
     7
370
    25
100
AcDbCircle
 10
-47.301034473
 20
322.6511281488
 30
0.0
 40
340.8878598516359
100
AcDbArc
 50
272.5427998331
 51
273.4882238615
  0
ARC
  5
FA
330
1B
100
AcDbEntity
 67
     1
  8
0
  6
Continuous
 62
     7
370
    25
100
AcDbCircle
 10
-36.5499156745
 20
28.8464959589
 30
0.0
 40
4.311938256494331
100
AcDbArc
 50
356.0128986004
 51
3.9871013996
  0
ARC
  5
FB
330
1B
100
AcDbEntity
 67
     1
  8
0
  6
Continuous
 62
     7
370
    25
100
AcDbCircle
 10
-31.9793472654
 20
28.6192515827
 30
0.0
 40
0.5285690809740138
100
AcDbArc
 50
350.7188871181
 51
76.1741820759
  0
ARC
  5
FC
330
1B
100
AcDbEntity
 67
     1
  8
0
  6
Continuous
 62
     7
370
    25
100
AcDbCircle
 10
-29.3479508979
 20
28.5247134564
 30
0.0
 40
0.5290307821501032
100
AcDbArc
 50
351.8162364117
 51
77.3960842825
  0
VIEWPORT
  5
350
330
1B
100
AcDbEntity
 67
     1
  8
0
100
AcDbViewport
 10
0.0
 20
0.0
 30
0.0
 40
205.6
 41
156.0
 68
     1
 69
     1
 12
0.0000000575
 22
-1.8340050804
 13
0.0
 23
0.0
 14
10.0
 24
10.0
 15
10.0
 25
10.0
 16
0.0
 26
0.0
 36
1.0
 17
0.0
 27
0.0
 37
0.0
 42
50.0
 43
0.0
 44
0.0
 45
136.2116736723
 50
0.0
 51
0.0
 72
   100
 90
   557152
  1

281
     0
 71
     1
 74
     0
110
0.0
120
0.0
130
0.0
111
1.0
121
0.0
131
0.0
112
0.0
122
1.0
132
0.0
 79
     0
146
0.0
  0
ENDSEC
  0
SECTION
  2
OBJECTS
  0
DICTIONARY
  5
C
330
0
100
AcDbDictionary
281
     1
  3
ACAD_GROUP
350
D
  3
ACAD_LAYOUT
350
1A
  3
ACAD_MLINESTYLE
350
17
  3
ACAD_PLOTSETTINGS
350
19
  3
ACAD_PLOTSTYLENAME
350
E
  3
ACAD_SCALELIST
350
47
  0
DICTIONARY
  5
D
102
{ACAD_REACTORS
330
C
102
}
330
C
100
AcDbDictionary
281
     1
  0
DICTIONARY
  5
1A
102
{ACAD_REACTORS
330
C
102
}
330
C
100
AcDbDictionary
281
     1
  3
_Links
350
1E
  3
_Rechts
350
30C
  3
_Rückseite
350
26
  3
Model
350
22
  0
DICTIONARY
  5
17
102
{ACAD_REACTORS
330
C
102
}
330
C
100
AcDbDictionary
281
     1
  3
Standard
350
18
  0
DICTIONARY
  5
19
102
{ACAD_REACTORS
330
C
102
}
330
C
100
AcDbDictionary
281
     1
  0
ACDBDICTIONARYWDFLT
  5
E
102
{ACAD_REACTORS
330
C
102
}
330
C
100
AcDbDictionary
281
     1
  3
Normal
350
F
100
AcDbDictionaryWithDefault
340
F
  0
DICTIONARY
  5
47
102
{ACAD_REACTORS
330
C
102
}
330
C
100
AcDbDictionary
281
     1
  3
A0
350
48
  3
A1
350
49
  3
A2
350
4A
  3
A3
350
4B
  3
A4
350
4C
  3
A5
350
4D
  3
A6
350
4E
  3
A7
350
4F
  3
A8
350
50
  3
A9
350
51
  3
B0
350
52
  3
B1
350
53
  3
B2
350
54
  3
B3
350
55
  3
B4
350
56
  3
B5
350
57
  3
B6
350
58
  3
B7
350
59
  3
B8
350
5A
  3
B9
350
5B
  3
C0
350
5C
  3
C1
350
5D
  3
C2
350
5E
  3
C3
350
5F
  3
C4
350
60
  3
C5
350
61
  3
C6
350
62
  3
C7
350
63
  3
C8
350
64
  3
C9
350
65
  3
D0
350
66
  3
D1
350
67
  3
D2
350
68
  0
LAYOUT
  5
1E
102
{ACAD_REACTORS
330
1A
102
}
330
1A
100
AcDbPlotSettings
  1

  2
none_device
  4
ISO_A4_(210.00_x_297.00_MM)
  6

 40
7.5
 41
20.0
 42
7.5
 43
20.0
 44
210.0
 45
297.0
 46
0.0
 47
0.0
 48
0.0
 49
0.0
140
0.0
141
0.0
142
1.0
143
0.3182669525
 70
   688
 72
     1
 73
     1
 74
     1
  7

 75
     0
147
3.1420164496
148
34.0
149
32.8650520051
100
AcDbLayout
  1
_Links
 70
     1
 71
     1
 10
-40.3653390493
 20
-35.2520541486
 11
54.1599458326
 21
31.5840058689
 12
0.0
 22
0.0
 32
0.0
 14
-34.0
 24
-32.8650520051
 34
0.0
 15
17.5926828697
 25
29.1970037254
 35
0.0
146
0.0
 13
0.0
 23
0.0
 33
0.0
 16
1.0
 26
0.0
 36
0.0
 17
0.0
 27
1.0
 37
0.0
 76
     0
330
1B
331
350
  0
LAYOUT
  5
30C
102
{ACAD_REACTORS
330
1A
102
}
330
1A
100
AcDbPlotSettings
  1

  2
none_device
  4
ISO_A4_(210.00_x_297.00_MM)
  6

 40
7.5
 41
20.0
 42
7.5
 43
20.0
 44
210.0
 45
297.0
 46
0.0
 47
0.0
 48
0.0
 49
0.0
140
0.0
141
0.0
142
1.0
143
0.3182669525
 70
   688
 72
     1
 73
     1
 74
     1
  7

 75
     0
147
3.1420164496
148
34.0
149
32.8650520051
100
AcDbLayout
  1
_Rechts
 70
     1
 71
     3
 10
0.0
 20
0.0
 11
0.0
 21
0.0
 12
0.0
 22
0.0
 32
0.0
 14
0.0
 24
0.0
 34
0.0
 15
0.0
 25
0.0
 35
0.0
146
0.0
 13
0.0
 23
0.0
 33
0.0
 16
1.0
 26
0.0
 36
0.0
 17
0.0
 27
1.0
 37
0.0
 76
     0
330
30B
331
354
  0
LAYOUT
  5
26
102
{ACAD_REACTORS
330
1A
102
}
330
1A
100
AcDbPlotSettings
  1

  2
none_device
  4
ISO_A4_(210.00_x_297.00_MM)
  6

 40
7.5
 41
20.0
 42
7.5
 43
20.0
 44
210.0
 45
297.0
 46
0.0
 47
0.0
 48
0.0
 49
0.0
140
0.0
141
0.0
142
1.0
143
0.3182669525
 70
   688
 72
     1
 73
     1
 74
     1
  7

 75
     0
147
3.1420164496
148
34.0
149
32.8650520051
100
AcDbLayout
  1
_Rückseite
 70
     1
 71
     2
 10
0.0
 20
0.0
 11
0.0
 21
0.0
 12
0.0
 22
0.0
 32
0.0
 14
0.0
 24
0.0
 34
0.0
 15
0.0
 25
0.0
 35
0.0
146
0.0
 13
0.0
 23
0.0
 33
0.0
 16
1.0
 26
0.0
 36
0.0
 17
0.0
 27
1.0
 37
0.0
 76
     0
330
23
331
352
  0
LAYOUT
  5
22
102
{ACAD_REACTORS
330
1A
102
}
330
1A
100
AcDbPlotSettings
  1

  2
none_device
  4
ANSI_A_(11.00_x_8.50_Inches)
  6

 40
6.35
 41
19.05
 42
6.35000508
 43
19.05000254
 44
279.4
 45
215.9
 46
133.3499973697
 47
91.7823669535
 48
0.0
 49
0.0
140
0.0
141
0.0
142
0.0618749998
143
1.0
 70
  1696
 72
     0
 73
     0
 74
     0
  7

 75
     0
147
0.0179189148
148
-1300.4909072572
149
0.0
100
AcDbLayout
  1
Model
 70
     1
 71
     0
 10
0.0
 20
0.0
 11
420.0
 21
297.0
 12
0.0
 22
0.0
 32
0.0
 14
-88.0000002788
 24
-32.8650138992
 34
0.0
 15
88.0000003938
 25
29.1970037384
 35
0.0
146
0.0
 13
0.0
 23
0.0
 33
0.0
 16
1.0
 26
0.0
 36
0.0
 17
0.0
 27
1.0
 37
0.0
 76
     0
330
1F
331
29
  0
MLINESTYLE
  5
18
102
{ACAD_REACTORS
330
17
102
}
330
17
100
AcDbMlineStyle
  2
Standard
 70
     0
  3

 62
   256
 51
90.0
 52
90.0
 71
     2
 49
0.5
 62
   256
  6
BYLAYER
 49
-0.5
 62
   256
  6
BYLAYER
  0
ACDBPLACEHOLDER
  5
F
102
{ACAD_REACTORS
330
E
102
}
330
E
  0
SCALE
  5
48
102
{ACAD_REACTORS
330
47
102
}
330
47
100
AcDbScale
 70
     0
300
1:1
140
1.0
141
1.0
290
     1
  0
SCALE
  5
49
102
{ACAD_REACTORS
330
47
102
}
330
47
100
AcDbScale
 70
     0
300
1:2
140
1.0
141
2.0
290
     0
  0
SCALE
  5
4A
102
{ACAD_REACTORS
330
47
102
}
330
47
100
AcDbScale
 70
     0
300
1:4
140
1.0
141
4.0
290
     0
  0
SCALE
  5
4B
102
{ACAD_REACTORS
330
47
102
}
330
47
100
AcDbScale
 70
     0
300
1:5
140
1.0
141
5.0
290
     0
  0
SCALE
  5
4C
102
{ACAD_REACTORS
330
47
102
}
330
47
100
AcDbScale
 70
     0
300
1:8
140
1.0
141
8.0
290
     0
  0
SCALE
  5
4D
102
{ACAD_REACTORS
330
47
102
}
330
47
100
AcDbScale
 70
     0
300
1:10
140
1.0
141
10.0
290
     0
  0
SCALE
  5
4E
102
{ACAD_REACTORS
330
47
102
}
330
47
100
AcDbScale
 70
     0
300
1:16
140
1.0
141
16.0
290
     0
  0
SCALE
  5
4F
102
{ACAD_REACTORS
330
47
102
}
330
47
100
AcDbScale
 70
     0
300
1:20
140
1.0
141
20.0
290
     0
  0
SCALE
  5
50
102
{ACAD_REACTORS
330
47
102
}
330
47
100
AcDbScale
 70
     0
300
1:30
140
1.0
141
30.0
290
     0
  0
SCALE
  5
51
102
{ACAD_REACTORS
330
47
102
}
330
47
100
AcDbScale
 70
     0
300
1:40
140
1.0
141
40.0
290
     0
  0
SCALE
  5
52
102
{ACAD_REACTORS
330
47
102
}
330
47
100
AcDbScale
 70
     0
300
1:50
140
1.0
141
50.0
290
     0
  0
SCALE
  5
53
102
{ACAD_REACTORS
330
47
102
}
330
47
100
AcDbScale
 70
     0
300
1:100
140
1.0
141
100.0
290
     0
  0
SCALE
  5
54
102
{ACAD_REACTORS
330
47
102
}
330
47
100
AcDbScale
 70
     0
300
2:1
140
2.0
141
1.0
290
     0
  0
SCALE
  5
55
102
{ACAD_REACTORS
330
47
102
}
330
47
100
AcDbScale
 70
     0
300
4:1
140
4.0
141
1.0
290
     0
  0
SCALE
  5
56
102
{ACAD_REACTORS
330
47
102
}
330
47
100
AcDbScale
 70
     0
300
8:1
140
8.0
141
1.0
290
     0
  0
SCALE
  5
57
102
{ACAD_REACTORS
330
47
102
}
330
47
100
AcDbScale
 70
     0
300
10:1
140
10.0
141
1.0
290
     0
  0
SCALE
  5
58
102
{ACAD_REACTORS
330
47
102
}
330
47
100
AcDbScale
 70
     0
300
100:1
140
100.0
141
1.0
290
     0
  0
SCALE
  5
59
102
{ACAD_REACTORS
330
47
102
}
330
47
100
AcDbScale
 70
     0
300
1/128" = 1'-0"
140
0.0078125
141
12.0
290
     0
  0
SCALE
  5
5A
102
{ACAD_REACTORS
330
47
102
}
330
47
100
AcDbScale
 70
     0
300
1/64" = 1'-0"
140
0.015625
141
12.0
290
     0
  0
SCALE
  5
5B
102
{ACAD_REACTORS
330
47
102
}
330
47
100
AcDbScale
 70
     0
300
1/32" = 1'-0"
140
0.03125
141
12.0
290
     0
  0
SCALE
  5
5C
102
{ACAD_REACTORS
330
47
102
}
330
47
100
AcDbScale
 70
     0
300
1/16" = 1'-0"
140
0.0625
141
12.0
290
     0
  0
SCALE
  5
5D
102
{ACAD_REACTORS
330
47
102
}
330
47
100
AcDbScale
 70
     0
300
3/32" = 1'-0"
140
0.09375
141
12.0
290
     0
  0
SCALE
  5
5E
102
{ACAD_REACTORS
330
47
102
}
330
47
100
AcDbScale
 70
     0
300
1/8" = 1'-0"
140
0.125
141
12.0
290
     0
  0
SCALE
  5
5F
102
{ACAD_REACTORS
330
47
102
}
330
47
100
AcDbScale
 70
     0
300
3/16" = 1'-0"
140
0.1875
141
12.0
290
     0
  0
SCALE
  5
60
102
{ACAD_REACTORS
330
47
102
}
330
47
100
AcDbScale
 70
     0
300
1/4" = 1'-0"
140
0.25
141
12.0
290
     0
  0
SCALE
  5
61
102
{ACAD_REACTORS
330
47
102
}
330
47
100
AcDbScale
 70
     0
300
3/8" = 1'-0"
140
0.375
141
12.0
290
     0
  0
SCALE
  5
62
102
{ACAD_REACTORS
330
47
102
}
330
47
100
AcDbScale
 70
     0
300
1/2" = 1'-0"
140
0.5
141
12.0
290
     0
  0
SCALE
  5
63
102
{ACAD_REACTORS
330
47
102
}
330
47
100
AcDbScale
 70
     0
300
3/4" = 1'-0"
140
0.75
141
12.0
290
     0
  0
SCALE
  5
64
102
{ACAD_REACTORS
330
47
102
}
330
47
100
AcDbScale
 70
     0
300
1" = 1'-0"
140
1.0
141
12.0
290
     0
  0
SCALE
  5
65
102
{ACAD_REACTORS
330
47
102
}
330
47
100
AcDbScale
 70
     0
300
1-1/2" = 1'-0"
140
1.5
141
12.0
290
     0
  0
SCALE
  5
66
102
{ACAD_REACTORS
330
47
102
}
330
47
100
AcDbScale
 70
     0
300
3" = 1'-0"
140
3.0
141
12.0
290
     0
  0
SCALE
  5
67
102
{ACAD_REACTORS
330
47
102
}
330
47
100
AcDbScale
 70
     0
300
6" = 1'-0"
140
6.0
141
12.0
290
     0
  0
SCALE
  5
68
102
{ACAD_REACTORS
330
47
102
}
330
47
100
AcDbScale
 70
     0
300
1'-0" = 1'-0"
140
12.0
141
12.0
290
     0
  0
ENDSEC
  0
EOF
